Your One-Stop Source For
Music Lyrics
Bass and Guitar Tabs
and More...
Music Lyrics Bass and Guitar Tabs

 

The Tabs Are Below

Learn To Read Tab
Chords Handbook
Corrections & Additions
Get Official Tab
Goldfinger tabs @ 911Tabs

 

"San Simeon"

 

Written by John Feldmann

Performed by Goldfinger

As heard on Goldfinger's 3rd LP "Stomping Ground"

 

tabbed by Stephen Ragsdale - massac_sux@hotmail.com - ICQ 19504166

please send corrections if you spot any, THANKS!

 

 

------

 

 

Standard E tuning

 

Intro - Strum these chords

 

e|--0----4----0----------------------------------------|

B|--0----5----2----------------------------------------|

G|--1----6----2----4-----------------------------------|

D|--2----6----2----4-----------------------------------|

A|--2----4----0----2-----------------------------------|

E|--0--------------------------------------------------|

 

Before verse

 

e|----------------------------------------------|

B|----------------------------------------------|

G|----------------------------------4-4-4-4-4---|

D|-2-2-2-2-2--4-4-4-4-4--7-7-7-7-7--4-4-4-4-4---|

A|-2-2-2-2-2--4-4-4-4-4--7-7-7-7-7--2-2-2-2-2---|

E|-0-0-0-0-0--2-2-2-2-2--5-5-5-5-5--------------|

 

1st Verse

 

e|-------------------------------------------------------|

B|-------------------------------------------------------|

G|--7-7-7-7-7-7--9---------------------------------------|

D|--7-7-7-7-7-7--9--7--9-9-9-9-9-9--5-5-5-5-5-5----(7)---|

A|--5-5-5-5-5-5--7--7--9-9-9-9-9-9--5-5-5-5-5-5----(7)---| repeat for verse, last time palm mute

E|------------------5--7-7-7-7-7-7--3-3-3-3-3-3----(5)---|

 

Chorus

 

e|----------------------------------------------|

B|----------------------------------------------|

G|------------2-2-2-2-2-------------4-4-4-4-4---|

D|-2-2-2-2-2--2-2-2-2-2--4-4-4-4-4--4-4-4-4-4---|

A|-2-2-2-2-2--0-0-0-0-0--4-4-4-4-4--2-2-2-2-2---|

E|-0-0-0-0-0-------------2-2-2-2-2--------------|

 

2nd Verse, same as the 1st, only palm muted

 

e|----------------------------------------------------|

B|----------------------------------------------------|

G|----------------------------------------------------|

D|----------------------------------------------------|

A|----------------------------------------------------|

E|----------------------------------------------------|

 

"take me back, take me back" part

 

e|----------------------------------------------|

B|----------------------------------------------|

G|----------------------------------4-4-4-4-4---|

D|-2-2-2-2-2--4-4-4-4-4--7-7-7-7-7--4-4-4-4-4---|

A|-2-2-2-2-2--4-4-4-4-4--7-7-7-7-7--2-2-2-2-2---|

E|-0-0-0-0-0--2-2-2-2-2--5-5-5-5-5--------------|

 

3rd Verse, Bass with funky guitar effect

 

Solo

 

e|-------------------------------------------------------------------------|

B|-------------------------------------------------------------------------|

G|-------------------------------------------------------------------------|

D|-------4-2--4/6-4-6-4-6-7-6-4-2-2-4--------4-2-------4/6-4-6-7-6-4-2-2-4-|

A|-2-2-2------------------------------2-2-2------2-2-2---------------------|

E|-------------------------------------------------------------------------|

 

Do the "take me back" part some more with slight variation.

Also use the acoustic sounding intro part towards the end.

Basically that is all of it. Enjoy.

 

 

Return to my to my Goldfinger tabs page

The Tablature is Copyright its respective owners.

Sign Up For My Newsletter
Subscribe | Unsubscribe

Site Map | Disclaimer | Privacy Policy | Media Kit | Submissions/Corrections

Website © 2000-2014 mattsmusicpage.com. All rights reserved.

Legal & DMCA: Matt's Music Page has been providing lyrics and tabs in a legal way, paying royalties each year to a few organizations. Then, all lyrics and tabs were removed from the site. Now, there's a new owner to the site, which purchased it August 26, 2014, and he is in negotiation to obtain licensing from BMI at the moment. If you have a specific DMCA request -- please do not hesitate to contact me via the contact button on top. I will do my very best to keep this site fully legal.

Get our toolbar!