Your One-Stop Source For
Music Lyrics
Bass and Guitar Tabs
and More...
Music Lyrics Bass and Guitar Tabs

 

The Tabs Are Below

Learn To Read Tab
Chords Handbook
Corrections & Additions
Get Official Tab
Goldfinger tabs @ 911Tabs

Band: Goldfinger

Song: Radio

 

/=slide

 

This song might be tuned a half step lower. But the tabs sound great with the song anyway.

 

 

Intro

e --------------------------------------------------------------------------------

b -------------------------------------------------------------------------

g -----7-6-------------------------7-6--------------------------------

d -0-------7--5-5--4--5/7--0-------7--5--7/9--7------------

a --------------------------------------------------------------------

e --------------------------------------------------------------------

 

e ---------------------------------------------------------------------------------

b ---------------------------------------------------------------------------------

g ----------7-6----------------------7--6--7/9--7--9/12--11--11/-------------

d -----0--------7--5-5--4--5/7-0----------------------------------------------

a -------------------------------------------------------------------------

e -------------------------------------------------------------------

 

Verse (also same chords played over intro)

"It's 9 o'clock, she's late for work...."

e ---------------------------------------------------------------------------------

b -------------------------------------------------------------------------------------

g -----7----------------------------------------------------------------------------------

d -----7--------5--------7-----------------------------------------------------------------

a -----5--------5--------7------------------------------------------------------------------

e ---------------3--------5---------------------------------------------------------------

 

Chorus

"Long live my radio, it never..."

e ---------------------------------------------------------------------------------

b -------------------------------------------------------------------------------------

g -------------------7-----------4--------------------------7-------------7-----------------

d ------5-----7-----7----7-----4------------5-----7-----7------7------7----7----5-------------------

a ------5-----7-----5----4-----2------------5-----7-----5------7------5----7----5--------------------

e ------3-----5-------------------------------3-----5-------------5------------5----3----------

 

"Long live my radio, please make..."

e ---------------------------------------------------------------------------------

b -------------------------------------------------------------------------------------

g -----------------4----------------------------7--------------7-----------------------------

d ---5-----7------4-----7-------5------7-----7-------7-----7------7--------------------------------

a ---5-----7------2-----7-------5------7-----5-------7-----5------7---------------------------------

e ---3-----5-------------5-------3------5--------------5------------5---------------------------

 

Second verse just palm mute the chords from the first.

 

Bridge

"And when the static's sreaming..."

e ---------------------------------------------------------------------------------

b -------------------------------------------------------------------------------------

g ---------------------------------------------------------------------------6------------

d -----------------------------------------------------------4----------4-----------------

a ----2-2-4--2------------------------------------------------5--4-----------------------------

e -----------------2----2--3--2--0--2----3--3--5--3---------------------------------------------

 

Then repeat chorus and end on

g ---------7-6-------------------------7-6--------------------------------------------------------------------

d-------0-------7--5--5--4--5/7--0-------7--5------------------------------------------------------------

 

Tabbed by: Paul Connor

KiNg4TaDaY@aol.com

 

Return to my to my Goldfinger tabs page

The Tablature is Copyright its respective owners.

Sign Up For My Newsletter
Subscribe | Unsubscribe

Site Map | Disclaimer | Privacy Policy | Media Kit | Submissions/Corrections

Website © 2000-2014 mattsmusicpage.com. All rights reserved.

Get our toolbar!