Your One-Stop Source For
Music Lyrics
Bass and Guitar Tabs
and More...
Music Lyrics Bass and Guitar Tabs

 

The Tabs Are Below

Learn To Read Tab
Chords Handbook
Corrections & Additions
Get Official Tab
Goldfinger tabs @ 911Tabs

 

 

MINDS EYE - Goldfinger

---------------------------------------------------------------------------------------------------------------------

 

tabbed by @~matthew mcghan~@

 

INTRO:

noise then

Guitar one

E------5--------------5---5------

B----5---5---5------5---5---5----

G--------------------------------

D--7-------7------7--------------

A--------------------------------

E--------------------------------

Guitar 2 is just strumming a D power chord in backround

 

Verse:

(if you could help me out here on the power chord name RYAN it has

slipped ME)its X799XX->?

B power chord, ? power chord,

B power chord, ? power chord, A power chord. 2X

 

CHORUS:

A power chord, G power chord, D power chord

A power chord, G power chord, ? power chord 2X

 

solo 0:57

 

E-------------------------------------------------------------------

B-4-4-4-2-4-5-4-0-----------------4-4-4-2-4-5-4-0-------------------

G-------------------------------------------------------------------

D-----------------4--7-7-7-4-2-4-------------------4-4-4-4-2-0-2----

A-------------------------------------------------------------------

E-------------------------------------------------------------------

 

 

BRIDGE:

i guess you call it the bridge about 1:24:

G power chord, D power chord, A power chord then

B---6-5---------

 

 

=====================================================================

 

 

Return to my to my Goldfinger tabs page

The Tablature is Copyright its respective owners.

Sign Up For My Newsletter
Subscribe | Unsubscribe

Site Map | Disclaimer | Privacy Policy | Media Kit | Submissions/Corrections

Website © 2000-2014 mattsmusicpage.com. All rights reserved.

Legal & DMCA: Matt's Music Page has been providing lyrics and tabs in a legal way, paying royalties each year to a few organizations. Then, all lyrics and tabs were removed from the site. Now, there's a new owner to the site, which purchased it August 26, 2014, and he is in negotiation to obtain licensing from BMI at the moment. If you have a specific DMCA request -- please do not hesitate to contact me via the contact button on top. I will do my very best to keep this site fully legal.

Get our toolbar!