Your One-Stop Source For
Music Lyrics
Bass and Guitar Tabs
and More...
Music Lyrics Bass and Guitar Tabs

 

The Tabs Are Below

Learn To Read Tab
Chords Handbook
Corrections & Additions
Get Official Tab
Goldfinger tabs @ 911Tabs

 

Goldfinger

Margaret Ann

Stomping Ground

 

Transcribed by : etsd311

 

Intro

=====

e|--0--3--0--3--| |--1--3--|

B|--1--0--1--0--| |--1--0--|

G|--0--0--2--0--| |--2--0--|

D|--2--0--2--0--| |--3--0--|

A|--3--2--0--2--| |--0--2--|

E|-----3-----3--| |-----3--|

 

Verse

=====

e|--------------| |-----|

B|--------------| |-----|

G|--5--7--------| |--3--|

D|--5--7--3--5--| |--3--|

A|--3--5--3--5--| |--1--|

E|--------1--3--| |-----|

 

Chorus

======

e|--------------| |--------|

B|--------------| |--------|

G|--5-----2-----| |--------|

D|--5--5--2--5--| |--3--5--|

A|--3--2--0--5--| |--3--5--|

E|-----------3--| |--1--3--|

 

Solo

====

e|----------------------------------------------------------------|

B|-------------6-6-6-5------------------6-8-6-5-6-5---------------|

G|--5-5-5h7-7----------5-5h7--5-5-5h7-7-------------7-5-7-7//9-5--|

D|----------------------------------------------------------------|

A|----------------------------------------------------------------|

E|----------------------------------------------------------------|

 

e|------------------------------------------|

B|------------6-6-6-5---)--------)----------|

G|--5-5-5h7-7---------5-7-5--7-5-7-5-7-9-5--|

D|------------------------------------------|

A|------------------------------------------|

E|------------------------------------------|

 

End

===

e|-----|

B|-----|

G|--5--|

D|--5--|

A|--3--|

E|-----|

Return to my to my Goldfinger tabs page

The Tablature is Copyright its respective owners.

Sign Up For My Newsletter
Subscribe | Unsubscribe

Site Map | Disclaimer | Privacy Policy | Media Kit | Submissions/Corrections

Website © 2000-2014 mattsmusicpage.com. All rights reserved.

Get our toolbar!