Your One-Stop Source For
Music Lyrics
Bass and Guitar Tabs
and More...
Music Lyrics Bass and Guitar Tabs

 

The Tabs Are Below

Learn To Read Tab
Chords Handbook
Corrections & Additions
Get Official Tab
Goldfinger tabs @ 911Tabs

 

Goldfinger - Man in A Suitcase.

Transcribed by Lev Malevanchik - LEVMAL@aol.com

 

E-------------------------

B-------------------------

G-------------------------

D--0-0-0-0-2--------------

A------------0------------

E--------------2-2-2-3-3-5

 

VERSE and CHORUS are both

 

D D G A

 

E--5--5--3--5

B--7--7--3--5

G--7--7--4--6

D--------5--7

A------------

E------------

 

E--5-3-5---5-3-5-----5-3-5---5-3-5--------

B--------3-------3---------3-------3/4/3/4

G-----------------------------------------

D-----------------------------------------

A-----------------------------------------

E-----------------------------------------

 

Hold out A

 

The End CHORUS

 

E B C#m A

 

E------------

B-----4--5---

G--1--4--6--6

D--2--4--6--7

A--2--2--4--7

E--0--------5

 

End on E

Return to my to my Goldfinger tabs page

The Tablature is Copyright its respective owners.

Sign Up For My Newsletter
Subscribe | Unsubscribe

Site Map | Disclaimer | Privacy Policy | Media Kit | Submissions/Corrections

Website © 2000-2014 mattsmusicpage.com. All rights reserved.

Legal & DMCA: Matt's Music Page has been providing lyrics and tabs in a legal way, paying royalties each year to a few organizations. Then, all lyrics and tabs were removed from the site. Now, there's a new owner to the site, which purchased it August 26, 2014, and he is in negotiation to obtain licensing from BMI at the moment. If you have a specific DMCA request -- please do not hesitate to contact me via the contact button on top. I will do my very best to keep this site fully legal.

Get our toolbar!

 

Hard Rock Pin Las Vegas 4th of july red white and blue guitar
$5.0
Hard Rock Pin Las Vegas 4th of july red white and blue guitar picture


Hard Rock Pin Hollywood Fl Bell Girl with dice luggage and guitar
$5.0
Hard Rock Pin Hollywood Fl Bell Girl with dice luggage and guitar picture


Hard Rock Pin Las Vegas King of Clubs Guitar rare only 3 lines of info on back
$5.0
Hard Rock Pin Las Vegas King of Clubs Guitar rare only 3 lines of info on back picture


Hard Rock Pin Edmonton guitar pin
$5.0
Hard Rock Pin Edmonton guitar pin picture


Lladro Guitar Boy #4614 - Beautiful Piece of Lladro
$109.0
Lladro Guitar Boy #4614 - Beautiful Piece of Lladro picture