Your One-Stop Source For
Music Lyrics
Bass and Guitar Tabs
and More...
Music Lyrics Bass and Guitar Tabs

 

The Tabs Are Below

Learn To Read Tab
Chords Handbook
Corrections & Additions
Get Official Tab
Goldfinger tabs @ 911Tabs

LIAR - Goldfinger

-------------------------------------------------------------------------------

 

By: Ed Long (AIM: punkgod94)

 

Everybody lies whatcha gonna do....

e|---------------------------------------------------------------------------|

B|----------10----5----5/7---------------------------------------------------|

G|---6----10-----5----5/7----------------------------------------------------|

D|--7---10------5----5/7-----------------------------------------------------|

A|-7---8-------3----3/5------------------------------------------------------|

E|5--------------------------------------------------------------------------|

x2 x2 x2 x1

(palm muted)

 

...hey

e|-------------------------------- -------------------------------|

B|---------10----5----5/7--------- 10-10-12-12-13-13-15-15--------|

G|---6---10-----5----5/7---------- -------------------------------|

D|--7--10------5----5/7----------- -------------------------------|

A|-7--8-------3----3/5------------ -------------------------------|

E|5------------------------------- -------------------------------|

x2 x1 x1 x1 (guitar 2)

 

===============================================================================

 

/ = slide

 

 

Return to my to my Goldfinger tabs page

The Tablature is Copyright its respective owners.

Sign Up For My Newsletter
Subscribe | Unsubscribe

Site Map | Disclaimer | Privacy Policy | Media Kit | Submissions/Corrections

Website © 2000-2014 mattsmusicpage.com. All rights reserved.

Legal & DMCA: Matt's Music Page has been providing lyrics and tabs in a legal way, paying royalties each year to a few organizations. Then, all lyrics and tabs were removed from the site. Now, there's a new owner to the site, which purchased it August 26, 2014, and he is in negotiation to obtain licensing from BMI at the moment. If you have a specific DMCA request -- please do not hesitate to contact me via the contact button on top. I will do my very best to keep this site fully legal.

Get our toolbar!