Your One-Stop Source For
Music Lyrics
Bass and Guitar Tabs
and More...
Music Lyrics Bass and Guitar Tabs

 

The Tabs Are Below

Learn To Read Tab
Chords Handbook
Corrections & Additions
Get Official Tab
Goldfinger tabs @ 911Tabs

 

Goldfinger - I'm Down.

Transcribed by Lev Malevanchik - LEVMAL@aol.com

 

INTRO/VERSE - Stummed softly without distortion

 

G D

What the hell do you know you say as you

Em C

turn your face right back to me?

G D

What the hell do you know you say like some

Em C

righteous man better than me?

 

 

CHORUS

 

Am C

Well I'm down, and you're killing me.

Am C

Well I'm down, and still you mean nothing to me.

 

 

VERSE 2x - bass with no words then two "C" chords

VERSE 2x - bass and guitar with no words

 

VERSE

 

G D

What the hell do you know you say as you

Em C

try to shrink me to your size?

G D

What the hell do you know you say you

Em C

judge 'cause you're too scared to try?

 

 

CHORUS

 

Am C

Well I'm down, and you're killing me.

Am C

Well I'm down, and still you mean nothing to me.

 

 

SOLO

 

E------------------------------------

B------------------------------------

G--7-7-7-7-5-4----------4-4-4-4------

D--------------7------7---------7-5-5

A-----------------5------------------

E------------------------------------

 

E--10-10-10-10-8-7--------8-7---7--8---10b

B------------------10---------8------8----

G---------------------7-------------------

D-----------------------------------------

A-----------------------------------------

E-----------------------------------------

 

 

VERSE (bass only until "But you won't" where guitar plays triplets)

 

G D Em C

Here we go singing the same song you've heard a

G D Em C

thousand times. You think you know the answer.

G D

But you won't try it.

Em C

And you deny it. It's the

G D

same damn song you've heard a

Em C

thousand times.

 

 

CHORUS 2 (listen for exact rhythms)

 

Am C

Well I'm down, and you're killing me.

Am C

Well I'm down, and you're killing me.

F G

Well I'm down. Yeah I'm down.

 

 

BREAK

 

Guitar 1 plays F, E, F, E power chords

 

Guitar 2 plays

 

E--1--1-1--1-1--0--0-0--0-0--1--1-1--1-1--0

B------------------------------------------

G------------------------------------------

D------------------------------------------

A------------------------------------------

E------------------------------------------

 

 

VERSE - a whole step up

 

E

What the hell do you know you say? Well I

F#m D

think I know way more than you.

A E

What the hell do you know you say 'cause I

F#m D

know to myself I am true.

 

 

CHORUS 2 (soft at first)

 

Bm D

Well I'm down, and you're killing me.

Bm D

Well I'm down, and you're killing me.

Bm D

When you're down, well I'll walk away.

Bm D

When you're down, still you mean fuck all to me.

 

 

SOLO 2

 

E--12-12-12-12-10-9--------10-9----9--10----12b

B-------------------12----------10-------10----

G----------------------9-----------------------

D----------------------------------------------

A----------------------------------------------

E----------------------------------------------

 

A

Yeah, nothing to me.

 

Return to my to my Goldfinger tabs page

The Tablature is Copyright its respective owners.

Sign Up For My Newsletter
Subscribe | Unsubscribe

Site Map | Disclaimer | Privacy Policy | Media Kit | Submissions/Corrections

Website © 2000-2014 mattsmusicpage.com. All rights reserved.

Legal & DMCA: Matt's Music Page has been providing lyrics and tabs in a legal way, paying royalties each year to a few organizations. Then, all lyrics and tabs were removed from the site. Now, there's a new owner to the site, which purchased it August 26, 2014, and he is in negotiation to obtain licensing from BMI at the moment. If you have a specific DMCA request -- please do not hesitate to contact me via the contact button on top. I will do my very best to keep this site fully legal.

Get our toolbar!