Your One-Stop Source For
Music Lyrics
Bass and Guitar Tabs
and More...
Music Lyrics Bass and Guitar Tabs

 

The Tabs Are Below

Learn To Read Tab
Chords Handbook
Corrections & Additions
Get Official Tab
Goldfinger tabs @ 911Tabs

 

Here In Your Bedroom

By Goldfinger

 

Intro/Riff 1a pm...................

e---------------------------------------------------------

B-------x-x-x------x-x-x----------------------------------

G-------x-x-x------x-x-x----------------------------------

D-------x-x-x------x-x-x------------------------6-6-7-9---

A--------------------------11\--------7-7-7--7------------

E---------------------------------------------------------

 

pm................................................................

e-----------------------------------------------------------------

B-----------------------------------------------------------------

G-----------------------------------------------------------------

D-----------------------------------4-4-5-7-----------------------

A-----------6-6-7-6-------5-5-5--5-----------------------4-4-5-4--

E---7-7--7---------------------------------------5-5--5-----------

 

Riff 1b

pm.....................

e---------------------------------------------------

B---------------------------------------------------

G---------------------------------------------------

D--------------6-6-7-9-----9/11--9--7--7/9--7--6----

A----7-7-7--7---------------------------------------

E---------------------------------------------------

 

pm........................*................

e-------------------------------------------- *gtr 2 plays

B-------------------------------------------- fill 1

G--------------------------------------------

D------------4-4-5-7-------------------------

A--5-5-5--5-----------------------4-4-5-4----

E-------------------------5-5--5-------------

 

fill 1

(heavy pm...............)

e------5--5--5--5-------

B----x-------------5----

G---x-----------------5-

play till verse 2

Verse 1

(Here in your bedroom,...)

Play Riff 1a

 

Verse 2

(I wonder what you think,...)

Riff 2*

pm..........................................

e--------------------------------------------- *gtr 2 plays

B--------------------------------------------- |--7-| |--7-| |--5-| |--5-|

G--------------------------------------------- |--9-|x4|--7-|x4|--7-|x4|--5-|x4

D-------------2-2-3-5------------------------- |--9-| |--8-| |--7-| |--6-|

A---3-3-3--3-----------------------2-2-3-5---- |----| |----| |----| |----|

E--------------------------3-3--3------------- |----| |----| |----| |----|

|----| |----| |----| |----|

pm......................................... play till chorus

e--------------------------------------------

B--------------------------------------------

G--------------------------------------------

D------------0-0-1-3-------------------------

A--1-1-1--1-----------------------0-0-1-0----

E-------------------------1-1--1-------------

 

Pre-Chorus

pm............................................................

e--------------------------------------------------------------

B--------------------------------------------------------------

G--------------------------------------------------------------

D--------9-9-7-7--------------10-10-------10-10---------12-12--

A---7-7-----------7-7----8-8---------8-8---------10-10---------

E--------------------------------------------------------------

 

pm....................................

e--------------------------------------------------------------

B--------------------------------------------------------------

G--------------------------------------------------------------

D-10-10-9-9---------14-14-12-12-10-10--------9--9--7--7--------

A------------12-12---------------------7--7--------------7--7--

E--------------------------------------------------------------

 

e------------------------------3------------

B------------------------------3-----------

G------------------------------0-------------

D--------10--10--------10------0-----------

A--8--8----------8--8------8----------------

E------------------------------3----12\----

 

Chorus

e---------------------------------------------------------------------------------

B---------------------------------------------------------------------------------

G--5--5--5-5----------------------3--3--3-3-------------------------------x-x-x-x-

D--5--5--5-5---5---5--5---5-5-----3--3--3-3----3----3--3---3-3-------3----x-x-x-x-

A--3--3--3-3---5---5--5---5-5-----1--1--1-1----3----3--3---3-3-------3----x-x-x-x-

E------------0-3---3--3---3-3-0--------------0-1----1--1---1-1--3----1----x-x-x-x-

 

Verse 3

e--------------------------------------------------------------------------

B--------------------------------------------------------------------------

G----9-9-9-9-9-9-9----------------------7----7-7-7-7---------------------x-

D----9-9-9-9-9-9-9-9----9-9-9-9-9-9-x---7----7-7-7-7---7---7-7-7-7-7--x--x-

A----7-7-7-7-7-7-7-9----9-9-9-9-9-9-x---5----5-5-5-5-0-7---7-7-7-7-7--x----

E------------------7----7-7-7-7-7-7--------------------5---5-5-5-5-5--x----

 

e-------------------------------------------------------------

B-------------------------------------------------------------

G---9--9-9-9-9-----------------------7--7--7-7----------------

D---9--9-9-9-9---9----9-9-9-9-9-9-0--7--7--7-7---7---7-7------

A---7--7-7-7-7-0-9----9-9-9-9-9-9-0--5--5--5-5-x-7---7-7------

E----------------7----7-7-7-7-7-7--------------0-5---5-5--x---

 

Verse 4

e------------------------------------------------------------------

B------------------------------------------------------------------

G---5--5-5-5-5--------------------3-3-3-3-3-3----------------------

D---5--5-5-5-5---5---5--5--5-5----3-3-3-3-3-3---3---3-3-3-3-3-3----

A---3--3-3-3-3---5---5--5--5-5-x--1-1-1-1-1-1---3---3-3-3-3-3-3----

E--------------0-3---3--3--3-3-0--------------0-1---1-1-1-1-1-1-0--

 

pm .... ...... ...... ...

e-------------------------------------------------------------

B-------------------------------------------------------------

G---5--5-----5--------------------------3-----3---------------

D---5--5-5-5-5---5---5---------5----3-3-3-3-3-3---3---3-------

A---3--3-3-3-3-5-5---5---5-5-5-5-x--1-1-1-1-1-1-x-3---3-------

E------3-3-3---3-3---3---3-3-3-3-0----------------1---1----x--

 

 

 

 

 

thats all im gonna give have fun.

And if anyone has a tab of "Know your enemy"

please send it to SonicCreep.

 

Return to my to my Goldfinger tabs page

The Tablature is Copyright its respective owners.

Sign Up For My Newsletter
Subscribe | Unsubscribe

Site Map | Disclaimer | Privacy Policy | Media Kit | Submissions/Corrections

Website © 2000-2014 mattsmusicpage.com. All rights reserved.

Legal & DMCA: Matt's Music Page has been providing lyrics and tabs in a legal way, paying royalties each year to a few organizations. Then, all lyrics and tabs were removed from the site. Now, there's a new owner to the site, which purchased it August 26, 2014, and he is in negotiation to obtain licensing from BMI at the moment. If you have a specific DMCA request -- please do not hesitate to contact me via the contact button on top. I will do my very best to keep this site fully legal.

Get our toolbar!