Your One-Stop Source For
Music Lyrics
Bass and Guitar Tabs
and More...
Music Lyrics Bass and Guitar Tabs

 

The Tabs Are Below

Learn To Read Tab
Chords Handbook
Corrections & Additions
Get Official Tab
Goldfinger tabs @ 911Tabs

GET AWAY - Goldfinger

-------------------------------------------------------------------------------

 

Tabbed by and Jmunk (Jmunk1@yahoo.com)

and Gomer (Gomer188@hotmail.com)

 

x-mute

/-slide down neck

\-slipe up neck

 

INTRO

RIFF 1 (Clean)

E |---------------------x-x--|

B |---------------------x-x--|

G |---------------------x-x--| Play 2x, then

D |---------------------x-x--|

A |--------3--------3-3-x-x--|

E |--1-1-3----1-1-3-----x-x--|

 

Both Guitars (Distortion)

F5 G5 C5 F5 G5 C5 G5 F5

E |---------------| E |---------------------------|

B |---------------| B |---------------------------| During the palm muted

G |------------5--| Play these chords G |------------5--------------| guitar another guitar

D |--3----5----5--| like the rhythm of D |--3----5----5----5x----3x--| comes in with,

A |--3----5----3--| the riff. A |--3----5----3----5x----3x--| G |-2/5\2/3\2/5\2/4\2--|

E |--1----3-------| E |--1----3---------3x----1x--| D |--------------------|

 

VERSE 1 (No guitar) *There might be a clean guitar strumming CHORUS chords but I doubt it.

 

PRE-CHORUS

E |---------------------------------------------|

B |---------------------------8-----------------|

G |--5----4----3----4----5----x----3----5----7--| Use effects pedal.

D |--x----x----x----x----x----5----x----x----x--|

A |--3----2----1----2----3---------1----3----5--|

E |---------------------------------------------|

 

CHORUS

C5 F5 A#5 G#5 C5 F5 A#5

E |-----------------------------------| E |---------------------x-x--|

B |-----------------------------------| B |---------------------x-x--|

G |--5---------3---------5---------3--| then G |---------------------x-x--|

D |--5----3----3----6----5----3----3--| D |---------------------x-x--|

A |--3----3----1----6----3----3----1--| A |--------3--------3-3-x-x--|

E |-------1---------4---------1-------| E |--1-1-3----1-1-3-----x-x--|

 

VERSE 2

A Guitar comes in with this when, "You cry about the look you've had..."

C5 F5 A#5 G#5 C5 F5 A#5

E |------------------------------------------|

B |------------------------------------------|

G |--5x----------3x----------5x----------3x--|

D |--5x----3x----3x----6x----5x----3x----3x--|

A |--3x----3x----1x----6x----3x----3x----1x--|

E |--------1x----------4x----------1x--------|

 

Also, a guitar plays these notes twice during VERSE 2

 

E |--0----|

B |----0--|

 

Repeat PRE-CHORUS then,

Repeat CHORUS, except play 2x

 

Then Guitar 1 plays INTRO chords while Guitar 2 plays this,

E |---------------------------------------------------------|

B |---------11----------11--14----------11----------10---9--|

G |--8--10---x---8--10---x---x---8--10---x---8--10---x---x--| Play 2x

D |--x---x---8---x---x---8--11---x---x---8---x---x---7---6--|

A |--6---8-------6---8-----------6---8-------6---8----------|

E |---------------------------------------------------------|

 

Repeat CHORUS 1 but only play the bass note of each chord muted,

while another guitar plays this,

 

RIFF 2

E |-------------|

B |-------------|

G |----8-9/11---| Play 2x

D |--9----------|

A |-------------|

E |-------------|

 

OUTRO

 

Repeat CHORUS 3x

 

That's it. Corrections, questions, comments...email us.

 

 

Return to my to my Goldfinger tabs page

The Tablature is Copyright its respective owners.

Sign Up For My Newsletter
Subscribe | Unsubscribe

Site Map | Disclaimer | Privacy Policy | Media Kit | Submissions/Corrections

Website © 2000-2014 mattsmusicpage.com. All rights reserved.

Legal & DMCA: Matt's Music Page has been providing lyrics and tabs in a legal way, paying royalties each year to a few organizations. Then, all lyrics and tabs were removed from the site. Now, there's a new owner to the site, which purchased it August 26, 2014, and he is in negotiation to obtain licensing from BMI at the moment. If you have a specific DMCA request -- please do not hesitate to contact me via the contact button on top. I will do my very best to keep this site fully legal.

Get our toolbar!