Your One-Stop Source For
Music Lyrics
Bass and Guitar Tabs
and More...
>Music Lyrics Bass and Guitar Tabs

 

The Tabs Are Below

Learn To Read Tab
Chords Handbook
Corrections & Additions
Get Official Tab
Goldfinger tabs @ 911Tabs

Song: Ted Nugent

Tabbed by Paul Connor

KiNg4TaDaY@aol.com

 

/ =slide

< =pick scrape

 

Intro

 

"Fuuuuu......

e ----7-7-7-7-7/---------4-4-4-4-4---------7-7-7-7-7/--------6----4----6----------------

b --------------------------------------------------------------------------------------------------

g ----4-4-4-4-4/---------1-1-1-1-1---------4-4-4-4-4/--------3----1----3-----1--------

d ----------------------------------------------------------------------------------------------4--

a ------------------------------------------------------------------------------------------------

e ----------------------------------------------------------------------------------------------

 

e --7-7-7-7-7/--------4-4-4-4-4--------7-7-7-7-7---------9-9-9-9-9------

b ----------------------------------------------------------------------------------------

g ---4-4-4-4-4/-------1-1-1-1-1--------4-4-4-4-4---------6-6-6-6-6-----------

d ---------------------------------------------------------------------------------

a ------------------------------------------------------------------------------------

e ------------------------------------------------------------------------------------

(yeeee haaa!)

Verse 1

 

"Fuck Ted Nugent...."

e -------------------------------------------------------------------------------

b ---------------------------------------------------------------------------------

g ------4-----------------------------------------------------------------------

d ------4----------4-------6-----------4--------------------------------------

a ------2----------1-------6-----------4-------------------------------------

e --------------------------4------------2------------------------------------

 

Chorus

 

"He's a dick...."

e ------------------------------------------------------------------------------------

b ---------------------------------------------------------------------------------

g ------4-------------------4--------------------------------------------------------

d ------4------6------------4---------4--------------------------------------------

a ------2------6------------2---------4-------------------------------------------

e --------------4-----------------------2--->>>>>>>>>---------------------

(go NUTS on the pick scraping in this song!)

 

Bridge

 

"He thinks, he'll get...."

e ------7-7-7-7-7-7-7-----6-6-6-6-6-6-6-----7-7-7-7-7-7-7---9-9-9-9-9-9-9------

 

Verse 3 (second guitar)

 

"Fara Fauset" (i like that better than lopez) "fur wearing...."

e -------------------------------------------------------------------------------

b ---------------------------------------------------------------------------------

g -----8---------6---------4----------3------------------------------------

d -----------------------------------------------------------------------

a -----6--------4----------2----------1--------------------------------------

e --------------------------------------------------------------------------

 

BIG Ending!

 

"Fuck-Ted-Nu-Gent!"

e ------------------------------------------------------------------------------

b ---------------------------------------------------------------------------------

g ----9-----------------6---------4-----------------------------------------------

d ----9---------9------6---------4--------------------------------------------

a ----7---------6------4---------2------------------------------------------

e --------------------------------------->>>>>>>>>>----------------------------------

 

Return to my to my Goldfinger tabs page

The Tablature is Copyright its respective owners.

Sign Up For My Newsletter
Subscribe | Unsubscribe

Site Map | Disclaimer | Privacy Policy | Media Kit | Submissions/Corrections

Website © 2000-2014 mattsmusicpage.com. All rights reserved.

Legal & DMCA: Matt's Music Page has been providing lyrics and tabs in a legal way, paying royalties each year to a few organizations. Then, all lyrics and tabs were removed from the site. Now, there's a new owner to the site, which purchased it August 26, 2014, and he is in negotiation to obtain licensing from BMI at the moment. If you have a specific DMCA request -- please do not hesitate to contact me via the contact button on top. I will do my very best to keep this site fully legal.

Get our toolbar!

 

Gibson Guitars - Slash - 1992 - Print Advertisement
$9.95
Gibson Guitars - Slash - 1992 - Print Advertisement picture


Gibson Guitars - Jimi Hendrix- - 1992- Print Advertisement
$9.95
Gibson Guitars - Jimi Hendrix-  - 1992-  Print Advertisement picture


LOT OF MISC Vintage LOOPSTICK ANTENNA GUITAR AMP Radio switch PARTS LOT
$58.0
LOT OF MISC Vintage LOOPSTICK  ANTENNA GUITAR AMP Radio switch PARTS LOT picture


Valentine~Colonial Couple Serenaded By Musician~Guitar~Powdered Hair~Emb~Germany
$6.5
Valentine~Colonial Couple Serenaded By Musician~Guitar~Powdered Hair~Emb~Germany picture


Silver w/CZ "ASHLEY" Charm Metal Keychain w/Ring New in Box, Guitar Pick
$7.95
Silver w/CZ