Your One-Stop Source For
Music Lyrics
Bass and Guitar Tabs
and More...
Music Lyrics Bass and Guitar Tabs

 

The Tabs Are Below

Learn To Read Tab
Chords Handbook
Corrections & Additions
Get Official Tab
Goldfinger tabs @ 911Tabs

Written By: Goldfinger

Song: Tell Me

Tabbed By: Adam Doogan-Smith

E-mail: doogy_411@hotmail.com

 

Standard Tuning: E,A,D,G

Slide Up: /

Hammer On: *

Let Ring: ~

 

Verse #1

G----------------------------------------------I

D---0000---------------------------------------I

A---------4444-22222222-------------00000000---I

E------------------------33333333--------------I

 

Riff #1

G------------------------------------I

D---00000000-----------00000000-2~---I

A------------22222222----------------I

E------------------------------------I

 

Riff #2

G-----------------------------------------------------------I

D--00000000------------00000000-2/12-11-12-14~---0----------I

A------------22222222-------------------------------4-2-0---I

E-----------------------------------------------------------I

 

 

Chorus #1

G-------------------------------I

D---------------0----0----------I

A---------0-0-----0-----4-2-0---I

E---3-3-------------------------I

 

Chorus #2

G-------------------I

D--------------0~---I

A---------0-0-------I

E---3-3-------------I

Chorus #3

G-----------------------------------I

D-------------------0000-0----------I

A-----------0000------------4-2-0---I

E---3333----------------------------I

 

Chorus #4

G-----------------------------------------I

D--------------------7*--7*--7*--7*----I

A------------0000------5---5---5---5---I

E---3333-------------------------------I

 

Riff #3

G-----------------------------------------------I

D----------------------------------0000---------I

A---22222222------------22222222---------0000---I

E-------------00000000--------------------------I

 

Riff #4

G---------------------------------------------I

D--------------------------------2/11/12-14---I

A---22222222------------2222222---------------I

E-------------00000000------------------------I

 

Chorus #5

G----------------------2-0------------I

D-------------------00------4-2-0-----I

A------2----00-4-0----------------4---I

E---33---3----------------------------I

 

Ending

G-------------------------I

D-------------------------I

A------2----00-4-0-4/5~---I

E---33---3----------------I

 

 

Verse #1 x2

Riff #1 x1

Chorus #1 x3

Chorus #2 x1

Verse #1 x2

Riff #2 x1

Chorus #3 x3

Chorus #4 x1

Riff #3 x1

Riff #4 x1

Chorus #1 x2

Chorus #5 x1

Ending x1

 

 

 

Return to my to my Goldfinger bass tabs page

The Tablature is Copyright its respective owners.

Sign Up For My Newsletter
Subscribe | Unsubscribe

Site Map | Disclaimer | Privacy Policy | Media Kit | Submissions/Corrections

Website © 2000-2014 mattsmusicpage.com. All rights reserved.

Legal & DMCA: Matt's Music Page has been providing lyrics and tabs in a legal way, paying royalties each year to a few organizations. Then, all lyrics and tabs were removed from the site. Now, there's a new owner to the site, which purchased it August 26, 2014, and he is in negotiation to obtain licensing from BMI at the moment. If you have a specific DMCA request -- please do not hesitate to contact me via the contact button on top. I will do my very best to keep this site fully legal.

Get our toolbar!