Your One-Stop Source For
Music Lyrics
Bass and Guitar Tabs
and More...
>Music Lyrics Bass and Guitar Tabs

 

The Tabs Are Below

Learn To Read Tab
Chords Handbook
Corrections & Additions
Get Official Tab
Goldfinger tabs @ 911Tabs

 

"Bro"

 

Written by John Feldmann

Performed by Goldfinger

As heard on Goldfinger's 3rd LP "Stomping Ground"

 

tabbed by

Stephen Ragsdale - massac_sux@hotmail.com - ICQ 19504166

&

Lev Malevanchik - LEVMAL@aol.com

 

 

please send corrections if you spot any, THANKS!

8-19-00 added the Ska section, thanks very much to Lev!!!

 

------

 

 

Standard E tuning

 

Intro - palm muted/Bass

 

e|----------------------------------------------------|

B|----------------------------------------------------|

G|----------------------------------------------------|

D|----------------------------------------------------|

A|--4-4---2-2-----------------------------------------|

E|------4-----4-4-4-2-4-2-0---------------------------|

 

YOUR NOT MY BRO, don't say it, don't you pretend that you're my bro...

(aka chorus)

 

e|----------------------------------------------------|

B|----------------------------------------------------|

G|--6-6-----4-4---------------------------------------|

D|--6-6--6--4-4--6-6-6-4-6-4-2------------------------|

A|--4-4--6--2-2--6-6-6-4-6-4-2------------------------|

E|-------4-------4-4-4-2-4-2-0------------------------|

 

1st Verse

 

"you think you're my friend"

e|----------------------------------------------------|

B|----------------------------------------------------|

G|--3-------------------4-3-2-------------------------|

D|--3--2-2--2-2--4-3-2--4-3-2-------------------------|

A|--1--2-2--2-2--4-3-2--2-1-0-------------------------|

E|-----0-0--0-0--2-1-0--------------------------------|

 

"yet you just take from me"

e|----------------------------------------------------|

B|----------------------------------------------------|

G|--3------------4------------------------------------|

D|--3--2-2--2-2--4------------------------------------|

A|--1--2-2--2-2--2------------------------------------|

E|-----0-0--0-0---------------------------------------|

 

"now is the end"

e|----------------------------------------------------|

B|----------------------------------------------------|

G|--3-------------------4-3-2-------------------------|

D|--3--2-2--2-2--4-3-2--4-3-2-------------------------|

A|--1--2-2--2-2--4-3-2--2-1-0-------------------------|

E|-----0-0--0-0--2-1-0--------------------------------|

 

"don't fucking smile, just get the fuck away from me"

e|----------------------------------------------------|

B|----------------------------------------------------|

G|--3---------------3-4-5-----------------------------|

D|--3--2-2--2-2-----3-4-5-----------------------------|

A|--1--2-2--2-2-----1-2-3-----------------------------|

E|-----0-0--0-0---------------------------------------|

 

CHORUS

 

e|----------------------------------------------------|

B|----------------------------------------------------|

G|--6-6-----4-4---------------------------------------|

D|--6-6--6--4-4--6-6-6-4-6-4-2------------------------|

A|--4-4--6--2-2--6-6-6-4-6-4-2------------------------|

E|-------4-------4-4-4-2-4-2-0------------------------|

 

2nd Verse

 

"you use your fake friends"

e|----------------------------------------------------|

B|----------------------------------------------------|

G|--3-------------------4-3-2-------------------------|

D|--3--2-2--2-2--4-3-2--4-3-2-------------------------|

A|--1--2-2--2-2--4-3-2--2-1-0-------------------------|

E|-----0-0--0-0--2-1-0--------------------------------|

 

"you use them and throw them away"

e|----------------------------------------------------|

B|----------------------------------------------------|

G|--3-------4-3-2-------------------------------------|

D|--3--2-2--4-3-2-2-----------------------------------|

A|--1--2-2--2-1-0-2-----------------------------------|

E|-----0-0--------0-----------------------------------|

 

"so now is the end"

e|----------------------------------------------------|

B|----------------------------------------------------|

G|--3-------------------4-3-2-------------------------|

D|--3--2-2--2-2--4-3-2--4-3-2-------------------------|

A|--1--2-2--2-2--4-3-2--2-1-0-------------------------|

E|-----0-0--0-0--2-1-0--------------------------------|

 

"don't fucking smile, just get the fuck away from me, get the fuck away"

e|----------------------------------------------------|

B|----------------------------------------------------|

G|--3---------------3-4-5----3-4-5--------------------|

D|--3--2-2--2-2-----3-4-5----3-4-5--------------------|

A|--1--2-2--2-2-----1-2-3----1-2-3--------------------|

E|-----0-0--0-0---------------------------------------|

 

CHORUS x 2

 

e|----------------------------------------------------|

B|----------------------------------------------------|

G|--6-6-----4-4---------------------------------------|

D|--6-6--6--4-4--6-6-6-4-6-4-2------------------------|

A|--4-4--6--2-2--6-6-6-4-6-4-2------------------------|

E|-------4-------4-4-4-2-4-2-0------------------------|

 

Here is where the ska chords come in (LEV ROCKS!!)

 

BEGINNING SOLO

 

E-----2/9--------------------11b-11-9

B--2--2/9--14--14p12h14/10/9---------

G-----2/9----------------------------

D------------------------------------

A------------------------------------

E------------------------------------

 

VERSE - ska upstrokes

 

Now you have forsaken all that I have known.

 

C#m C#m A C#m C#m C#m E F#

E--4----4----5----4----4----4--------------

B--5----5----5----5----5----5----5--7-7-7-7

G--6----6----6----6----6----6----4--6------

D------------7-------------------6--8------

A------------------------------------------

E------------------------------------------

 

Now you've really taken me for everything I own.

 

C#m C#m A C#m C#m C#m A G#

E--4----4----5----4----4----4--------------

B--5----5----5----5----5----5--------------

G--6----6----6----6----6----6--------------

D------------7-------------------7----6----

A--------------------------------7----6----

E--------------------------------5----4----

 

When I want it back, I doubt you'll ever see.

 

C#m C#m A C#m C#m C#m F# Asus9

E--4----4----5----4----4----4----------------7-7-7

B--5----5----5----5----5----5------7-7-7---5------

G--6----6----6----6----6----6----6---------6------

D------------7-------------------8----------------

A-------------------------------------------------

E-------------------------------------------------

 

It's you that has to pay the price and me who is set free.

 

C#m C#m A C#m C#m C#m A C#m

E--4----4----5----4----4----4----5----4----

B--5----5----5----5----5----5----5----5----

G--6----6----6----6----6----6----6----6----

D------------7-------------------7---------

A------------------------------------------

E------------------------------------------

 

You're not my bro. (look at the bottom for the bass part during this)

 

C#m C#m A C#m C#m C#m A C#m Fill where the * is

E--4----4----5----4----4----4----5--*-4---- --11b--9--

B--5----5----5----5----5----5----5----5---- ----------

G--6----6----6----6----6----6----6----6---- ----------

D------------7-------------------7--------- ----------

A------------------------------------------ ----------

E------------------------------------------ ----------

 

C#m C#m A C#m C#m C#m A C#m

E--4----4----5----4----4----4----5----4----

B--5----5----5----5----5----5----5----5----

G--6----6----6----6----6----6----6----6----

D------------7-------------------7---------

A------------------------------------------

E------------------------------------------

 

You're not my bro. (hold out each chord) 2nd guitar is tapping

 

E------------------------------------------ ------

B--4----5----4----5----4----5----4----5---- --14--

G--6----6----6----6----6----6----6----6---- ------

D------------------------------------------ ------

A------------------------------------------ ------

E------------------------------------------ ------

 

Bass part during the last of the ska chords kind of goes like this

 

G----------------

D-------------7-6

A--4--4-4-4-4----

E----------------

 

CHORUS (4x)

 

e|----------------------------------------------------|

B|----------------------------------------------------|

G|--6-6-----4-4---------------------------------------|

D|--6-6--6--4-4--6-6-6-4-6-4-2------------------------|

A|--4-4--6--2-2--6-6-6-4-6-4-2------------------------|

E|-------4-------4-4-4-2-4-2-0------------------------|

 

Then CHORUS 3x while playing this C# chord a lot.

 

e|-----|

B|-----|

G|--6--|

D|--6--|

A|--4--|

E|-----|

 

then

 

"Don't you pretend."

 

e|----------------

B|----------------

G|----------------

D|--6-----6---4--2

A|--6-----6---4--2

E|--4-----4---2--0

 

 

 

 

Return to my to my Goldfinger tabs page

The Tablature is Copyright its respective owners.

Sign Up For My Newsletter
Subscribe | Unsubscribe

Site Map | Disclaimer | Privacy Policy | Media Kit | Submissions/Corrections

Website © 2000-2014 mattsmusicpage.com. All rights reserved.

Legal & DMCA: Matt's Music Page has been providing lyrics and tabs in a legal way, paying royalties each year to a few organizations. Then, all lyrics and tabs were removed from the site. Now, there's a new owner to the site, which purchased it August 26, 2014, and he is in negotiation to obtain licensing from BMI at the moment. If you have a specific DMCA request -- please do not hesitate to contact me via the contact button on top. I will do my very best to keep this site fully legal.

Get our toolbar!

 

Starbucks You Are Here Coffee Mug/Cup KENTUCKY - Horses, Banjo, Blue, White
$19.99
Starbucks You Are Here Coffee Mug/Cup KENTUCKY - Horses, Banjo, Blue, White picture


KNOWLES ROCKWELL HERITAGE "THE BANJO PLAYER" FIRST EDITION 1989 PLATE COA
$5.99
KNOWLES ROCKWELL HERITAGE


Vintage Postcard 1981 Disney World Banjo Kings Main Street USA 1981 Postmark
$4.99
 Vintage Postcard 1981 Disney World Banjo Kings Main Street USA 1981 Postmark picture


Banjo Barometer With Thermometer Hygrometer 490mm
$84.76
Banjo Barometer With Thermometer Hygrometer 490mm picture


ANTIQUE JAPANESE NIPPON FIGURINE SET OF 3 WOMEN GEISHA PLAYING DRUM BANJO FAN
$24.0
ANTIQUE JAPANESE NIPPON FIGURINE SET OF 3 WOMEN GEISHA PLAYING DRUM BANJO FAN picture