Your One-Stop Source For
Music Lyrics
Bass and Guitar Tabs
and More...
Music Lyrics Bass and Guitar Tabs

 

The Tabs Are Below

Learn To Read Tab
Chords Handbook
Corrections & Additions
Get Official Tab
Goldfinger tabs @ 911Tabs

This is 'My Head' from the 1997 album 'Hang Ups'

 

Intro (first bit is guitar)

G|---------------------------------------------------------------------------|

D|---------------------------------------------------------------------------|

A|----------------44444444-5555555--777777-----------------------------------|

E|---5555555-----------------------------------------------------------------|

 

G|---------------------------------------------------------------------------|

D|---------------------------------------------------------------------------|

A|------44-------------------------------------------------------------------|

E|--55-----11-44-00----------------------------------------------------------|

 

Chorus

G|---------------------------------------------------------------------------|

D|---------------------------------------------------------------------------|

A|---------------------------------------------------------------------------|

E|---111111111-000000--------------------------------------------------------|

 

G|---------------------------------------------------------------------------|

D|---------------------------------------------------------------------------|

A|---------------------------------------------------------------------------|

E|--555-444-222-444----------------------------------------------------------|

 

Weird bit

G|-------------------|------------------|------------------------------------|

D|-------------------|------------------|------------------------------------|

A|----------555------|----------555-777-|--555-777---------------------------|

E|--11-33--------555-|-11-33------------|------------------------------------|

 

G|--------------22--55--77--99----------------------------------------------|

D|--------22-44-------------------------------------------------------------|

A|--44-55-------------------------------------------------------------------|

E|--------------------------------------------------------------------------|

 

Enjoi

 

 

 

Return to my to my Goldfinger bass tabs page

The Tablature is Copyright its respective owners.

Sign Up For My Newsletter
Subscribe | Unsubscribe

Site Map | Disclaimer | Privacy Policy | Media Kit | Submissions/Corrections

Website © 2000-2014 mattsmusicpage.com. All rights reserved.

Legal & DMCA: Matt's Music Page has been providing lyrics and tabs in a legal way, paying royalties each year to a few organizations. Then, all lyrics and tabs were removed from the site. Now, there's a new owner to the site, which purchased it August 26, 2014, and he is in negotiation to obtain licensing from BMI at the moment. If you have a specific DMCA request -- please do not hesitate to contact me via the contact button on top. I will do my very best to keep this site fully legal.

Get our toolbar!