Your One-Stop Source For
Music Lyrics
Bass and Guitar Tabs
and More...
>Music Lyrics Bass and Guitar Tabs

 

The Tabs Are Below

Learn To Read Tab
Chords Handbook
Corrections & Additions
Get Official Tab
Goldfinger tabs @ 911Tabs

 

Mable

Goldfinger

 

Intro

G-----------------------------------------------------------------

D---------------------------------------------------------------

A----------------------------------3-3-3-3-3-3-3-3-3-3-3-3-3-3-3-

E-3-3-3-3-3-3-3-3-0-0-0-0-0-0-0-0--------------------------------

 

G-------------------------------------------------------------------

D-------------------------------------------------------------------

A---------------------------------3-3-3-3-3-3-3-3/10-10-10-10-10-10-

E-3-3-3-3-3-3-3-3-0-0-0-0-0-0-0-0-----------------------------------

 

verse part 1 2x

G----------------------------------------------------------------

D----------------------------------------------------------------

A---------------------------------3-3-3-3-3-3-3-3-3-3-3-3-3-3-3-3-

E-3-3-3-3-3-3-3-3-0-0-0-0-0-0-0-0---------------------------------

 

part 2

G-------------------------------------------------------------------

D-----------------------------------------------------------------

A5--5--5--5-3--2--0000--------------------------------------------

E-----------------------------------------------------------------

 

Chorus

G----------------------------------------------------------------

D----------------------------------------------------------------

A---------5-5-5-5---------7-7-7-7--3-3-3-3-3-3-3-3-5-5-5-5-5-5-5-5-

E-3-3-3-3---------7-7-7-7------------------------------------------

 

3rd verse

G-----------------3-----3

D------3----0---3-----3

A----3----0---33----33

E-33----00--

3rd verse part 2

G

D

A55555555555555555333333322220000

E--------------------------------------

 

Tabbed by Ian Higbee

 

Return to my to my Goldfinger bass tabs page

The Tablature is Copyright its respective owners.

Sign Up For My Newsletter
Subscribe | Unsubscribe

Site Map | Disclaimer | Privacy Policy | Media Kit | Submissions/Corrections

Website © 2000-2014 mattsmusicpage.com. All rights reserved.

Legal & DMCA: Matt's Music Page has been providing lyrics and tabs in a legal way, paying royalties each year to a few organizations. Then, all lyrics and tabs were removed from the site. Now, there's a new owner to the site, which purchased it August 26, 2014, and he is in negotiation to obtain licensing from BMI at the moment. If you have a specific DMCA request -- please do not hesitate to contact me via the contact button on top. I will do my very best to keep this site fully legal.

Get our toolbar!

 

Goebel Children of De Grazia "INDIAN BOY WITH DRUM" 7308 Figurine Signed
$59.99
Goebel Children of De Grazia


CLETRAC GENERAL BRAKE DRUM #112256
$19.95
CLETRAC GENERAL BRAKE DRUM #112256 picture


RABBITT BEATING A DRUM, CHILDS HANKIE, 9" BY 9"
$5.0
RABBITT BEATING A DRUM, CHILDS HANKIE,  9


Vintage Ceiling Light Globe Drum Shade White w/Clear Textured Glass Kitchen MCM
$14.99
Vintage Ceiling Light Globe Drum Shade White w/Clear Textured Glass Kitchen MCM picture


Ronnie "I'll Play My Drum For You"~Cherished Teddies #912905 ~ 6CC1/871
$5.0
Ronnie