Your One-Stop Source For
Music Lyrics
Bass and Guitar Tabs
and More...
Music Lyrics Bass and Guitar Tabs

 

The Tabs Are Below

Learn To Read Tab
Chords Handbook
Corrections & Additions
Get Official Tab
Goldfinger tabs @ 911Tabs

Song: The Last Time

 

Artist: Goldfinger

 

Tabbed by: Luke (nopx_dude@hotmail.com)

 

 

> = Play a couple of times.

~ = Hold note.

s = slide

 

Intro:

 

G----------------------------------------

D-----7-5-4---4--------------------------

A---5-------7---5-5----------------------

E--------------------7--5--3--5-5--5-5---

 

Pre-Verse:

 

G-------------------

D-------------------

A---5>--0-0---0-0---

E-------------------

 

Verse:

 

G--------------------------------------

D--------------------------------------

A---5>---4>---2>-------------3>---2>---

E------------------5>---3>-------------

 

 

Chorus:

 

G------------------------------

D------------------------------

A---4--5>----------------------

E----------7--5--3--5-5--5-5---

 

Bridge #1:

 

G-----------------------

D-----------------------

A-----------------------

E---3>---5>---3>---5>---

 

G------------------------------------------------------

D------------------------------------------------------

A------2>-5>-2>---------4>-7>-4>---------2>-5>-2>------

E---3>----------3>---5>----------5>---3>----------3>---

 

Guitar Solo:

 

G--------------------------------------

D--------------------------------------

A---5>---4>---2>-------------3>---2>---

E------------------5>---3>-------------

 

Bridge #2:

 

G-----------------------

D-----------------------

A-----------------------

E---3>---5>---3>---5>---

 

G---4------------------------4-------------

D-----7-5-4-5-4------7s9-7-----7-5-4-5-4---

A------------------------------------------

E-----------------0~-----------------------

 

Higher Chorus:

 

G------------------------------

D------------------------------

A---6--7>----------------------

E----------9--7--5--7-7--7-7---

 

Outro:

 

G-------------------------------

D-----9-7-6---6-----------------

A---7-------9---7-7-------------

E--------------------9--7--5~---

 

 

Order:

 

Intro x1

Pre-Verse x1

Verse x2

Chorus x2

Pre-Verse x1

Verse x2

Chorus x2

Bridge #1 x1

Intro x1

Guitar Solo x2

Bridge #2 x1

Intro x1

Higher Chorus x4

Outro x1

 

By Luke (nopx_dude@hotmail.com)

 

 

 

Return to my to my Goldfinger bass tabs page

The Tablature is Copyright its respective owners.

Sign Up For My Newsletter
Subscribe | Unsubscribe

Site Map | Disclaimer | Privacy Policy | Media Kit | Submissions/Corrections

Website © 2000-2014 mattsmusicpage.com. All rights reserved.

Legal & DMCA: Matt's Music Page has been providing lyrics and tabs in a legal way, paying royalties each year to a few organizations. Then, all lyrics and tabs were removed from the site. Now, there's a new owner to the site, which purchased it August 26, 2014, and he is in negotiation to obtain licensing from BMI at the moment. If you have a specific DMCA request -- please do not hesitate to contact me via the contact button on top. I will do my very best to keep this site fully legal.

Get our toolbar!