Your One-Stop Source For
Music Lyrics
Bass and Guitar Tabs
and More...
Music Lyrics Bass and Guitar Tabs

 

The Tabs Are Below

Learn To Read Tab
Chords Handbook
Corrections & Additions
Get Official Tab
Goldfinger tabs @ 911Tabs

Song: King For a Day

Band: Goldfinger YES I SWEAR IT IS BY GOLDFINGER!!!

Album: Goldfinger (their first cd)

 

it's not like two bands can't have the same freakin' song name.

Tabbed by: Billy Pratt a.k.a bgpratt (bgpratt84@yahoo.com)

 

 

intro is played by a keyboard but you can play anyway with this

G-----------------------------------------------------

D-/12-12-12-------12-12-12----12-------14----14----14-

A-----------12-12----------12----15-15----15----15----

E-----------------------------------------------------

 

G-------------------------------------------------

D-------------17-17-------------17----------------

A-------17----------------17-------13-13/15-15-15-

E-15-15----15-------15-15----15-------------------

 

come in with this if you have a keyboard player or something

G--------------------------------------|-----------------------------------

D----------------------------2---2---2-|---------5-5---------5-------------

A-1/-5-5-5-0-0-5-5-5-0-5-3-3---3---3---|-----5-----------5-----1-1/3-3-3-3-

E--------------------------------------|-3-3---3-----3-3---3---------------

 

G--------------------------------------|---------------------------------

D----------------------------2---2---2-|----------5-5----------5-----3---

A-3/-5-5-5-0-0-5-5-5-0-5-3-3---3---3---|-----5-------------5-----1-1---1-

E--------------------------------------|-3-3---3-------3-3---3-----------

 

G-------------------------------------------------------------------------------

D-----------------------------------3---3-----------------5-----------------3---

A-3-3-3-----3-3-3---3-1-1-----1-1-1---1---1-3-3-----3-3-3---3-1-1-----1-1-1---1-

E-------3-3-------3-------1-1-------------------3-3---------------1-1-----------

 

G-----------------------|----------------------------------------

D---------6-6---------6-|-1-1-------1-1-1-----1----3-3-2-3-4-5---

A-----6-----------6-----|-----3-1-3-------3-1--------------------

E-4-4---4-----4-4---4---|------------------------1-------------3-

 

G-----------------------------------|-----------------------------------

D-------------------------2---2---2-|---------5-5---------5-------------

A-5-5-5-0-0-5-5-5-0-5-3-3---3---3---|-----5-----------5-----1-1/3-3-3-3-

E-----------------------------------|-3-3---3-----3-3---3---------------

 

G--------------------------------------|-------------------------------

D----------------------------2---2---2-|----------5-5----------5-------

A-3/-5-5-5-0-0-5-5-5-0-5-3-3---3---3---|-----5-------------5-----1-1-1-

E--------------------------------------|-3-3---3-------3-3---3---------

 

G-------------------------------------------------------------------------------

D-----------------------------------3---3-----------------5-----------------3---

A-3-3-3-----3-3-3---3-1-1-----1-1-1---1---1-3-3-----3-3-3---3-1-1-----1-1-1---1-

E-------3-3-------3-------1-1-------------------3-3---------------1-1-----------

 

G-----------------------|-------------------------------------------

D---------6-6---------6-|-1-1-------1-1-1-----1-----------0-2-3-5---

A-----6-----------6-----|-----3-1-3-------3-1-------0-2-3-----------

E-4-4---4-----4-4---4---|-----------------------1-3---------------3-

 

G-----------------------------------|-----------------------------------

D-------------------------2---2---2-|---------5-5---------5-------------

A-5-5-5-0-0-5-5-5-0-5-3-3---3---3---|-----5-----------5-----1-1/3-3-3-3-

E-----------------------------------|-3-3---3-----3-3---3---------------

 

G-----------------------------------|-----------------------------------

D-------------------------2---2---2-|---------5-5---------5-------------

A-5-5-5-0-0-5-5-5-0-5-3-3---3---3---|-----5-----------5-----1-1/3-3-3-3-

E-----------------------------------|-3-3---3-----3-3---3---------------

 

G---------------------------------------|-----------------------------------

D-----------------------------2---2---2-|---------5-5---------5-------------

A-5-5-5-0-0-5-5-5-0-5-3-3---3---3---3---|-----5-----------5-----1-1/3-3-3-3-

E-------------------------3-------------|-3-3---3-----3-3---3---------------

 

G-----------------------------------------------------------------

D-----------------------------------------------------------------

A-5-5-5-5-3-3-3-3---------1-1-1-1-3-3-3-3-1-1-1-1-3-3-3-3-1-1-1-1-

E-----------------3-3-3-3-----------------------------------------

 

G-------------------------------------

D-------------------------------------

A-----------6-6-6-6-7-8-8-8-8-9-10\---

E-4-4-4-4-6-------------------------3-

 

G----------------------------------------------------------------------

D----------------------------------------------------------------------

A-5555555555555555-3333333333333333------------------11111111-33333333-

E-----------------------------------3333333333333333----repeat until fade

 

Enjoy this tab and please don't rate it solely on the fact that it happens to bear

the same name as Green Day's song and you're just too ignorant to realize that this

one is the Goldfinger version.

 

 

 

 

Return to my to my Goldfinger bass tabs page

The Tablature is Copyright its respective owners.

Sign Up For My Newsletter
Subscribe | Unsubscribe

Site Map | Disclaimer | Privacy Policy | Media Kit | Submissions/Corrections

Website © 2000-2014 mattsmusicpage.com. All rights reserved.

Legal & DMCA: Matt's Music Page has been providing lyrics and tabs in a legal way, paying royalties each year to a few organizations. Then, all lyrics and tabs were removed from the site. Now, there's a new owner to the site, which purchased it August 26, 2014, and he is in negotiation to obtain licensing from BMI at the moment. If you have a specific DMCA request -- please do not hesitate to contact me via the contact button on top. I will do my very best to keep this site fully legal.

Get our toolbar!