Your One-Stop Source For
Music Lyrics
Bass and Guitar Tabs
and More...
Music Lyrics Bass and Guitar Tabs

 

The Tabs Are Below

Learn To Read Tab
Chords Handbook
Corrections & Additions
Get Official Tab
Goldfinger tabs @ 911Tabs

Goldfinger - January

 

INTRO:

 

G |--(1----------2)---------| Play 2x

D |--(2----------2)---------|

A |---2*-repeat--0* repeat--|

E |-------------------------|

 

VERSE 1:

 

G |--------------------------------------| Play 4x

D |--------------------------------------|

A |--2-2-2-2--2-2-2-2--0-0-0-0--0-0-0-0--|

E |--------------------------------------|

 

PRE-CHORUS 1:

 

G |--------9-------------| Play 1.5x

D |----------------------|

A |----9---------7-------|

E |--7---------5---------|

 

 

After this top part play this:

 

G |----------------------|

D |----------------------|

A |--0--2--2----2--2--2--|

E |----------------------|

 

CHORUS 1:

 

G |--------------------------------------------

D |--(2-2-2-2---2-2-2-2----2-2-2-2---2-2-2-2)--

A |--2-2-2-2---2-2-2-2----0-0-0-0---0-0-0-0----

E |--------------------------------------------

 

G ---------------------------------------------| Play 2x

D ---(4-4-4-4---4-4-4-4----2-2-2-2---2-2-2-2)--|() opt chords

A ----2-2-2-2---2-2-2-2----0-0-0-0---0-0-0-0---|

E ---------------------------------------------|

 

POST CHORUS:

 

Guitar 1 Repeat INTRO, except play 1x

 

 

Light Distortion

G |--------------------------------------------------------------------|

D |--------------------------------------------------------------------|

A |--2-2-2-2-2-2-2-2-2-2-2-2-2-2-2-2--0-0-0-0-0-0-0-0-0-0-0-0-0-0-0-0--|

E |--------------------------------------------------------------------|

 

 

VERSE 2:

 

Play throughout

G |------------------------------2---------2--------| VERSE 2 and

D |-------------------------------------------------| PRE-CHORUS 2

A |-------2----------2----------------2----------2--|

E |-----0---------0----------------0---------0------|

 

CHORUS 2:

 

Repeat CHORUS 1

 

BRIDGE 1:

 

*Distored Guitars

 

G |---------------------------------------------------------------------|

D |---------------------------------------------------------------------|

A |--4--4--4-4-6----------------------------7-7--6-6--4-4-4-4-----------|

E |---------------4--4--4-4-4--5-5-X-X-5-5---------------------4-4-4-4--|

 

 

G ---------------------------------------------------------------------|

D ---------------------------------------------------------------------|

A ---------------------------------------------------------------------|

E --5--5--5-5-5--5--5--5-5-5--7-7-7-7-7-7-7-7-7-7-7-7-7-7-7-7-7-7-7-7--|

p.m. ......................

 

CHORUS 3:

 

G |-----------------------------------------------------| Play 2x

D |-----------------------------------------------------| Play around

A |--7*---7-7-7-\-11*-11-11\12/-9*--9--9--9/7*----------| with these

E |-----------------------------------------------------| octaves.

 

BRIDGE 2:

 

G |-----------13------------14--| Play 3x, G |---------------| Then

D |-----14------------14--------| Then D |-----17--------|

A |--14----14------12----12-----| A |--15----15-----|

E |-----------------------------| E |---------------|

 

G |---------|

D |---------|

A |--7---2--|

E |---5-----|

 

 

 

 

 

OUTRO:

G |--------1--|

D |------2----|

A |--2--------|

E |-----------|

 

 

 

Return to my to my Goldfinger bass tabs page

The Tablature is Copyright its respective owners.

Sign Up For My Newsletter
Subscribe | Unsubscribe

Site Map | Disclaimer | Privacy Policy | Media Kit | Submissions/Corrections

Website © 2000-2014 mattsmusicpage.com. All rights reserved.

Legal & DMCA: Matt's Music Page has been providing lyrics and tabs in a legal way, paying royalties each year to a few organizations. Then, all lyrics and tabs were removed from the site. Now, there's a new owner to the site, which purchased it August 26, 2014, and he is in negotiation to obtain licensing from BMI at the moment. If you have a specific DMCA request -- please do not hesitate to contact me via the contact button on top. I will do my very best to keep this site fully legal.

Get our toolbar!

 

Starbucks You Are Here Coffee Mug/Cup KENTUCKY - Horses, Banjo, Blue, White
$19.99
Starbucks You Are Here Coffee Mug/Cup KENTUCKY - Horses, Banjo, Blue, White picture


KNOWLES ROCKWELL HERITAGE "THE BANJO PLAYER" FIRST EDITION 1989 PLATE COA
$5.99
KNOWLES ROCKWELL HERITAGE


Vintage Postcard 1981 Disney World Banjo Kings Main Street USA 1981 Postmark
$4.99
 Vintage Postcard 1981 Disney World Banjo Kings Main Street USA 1981 Postmark picture


Banjo Barometer With Thermometer Hygrometer 490mm
$84.76
Banjo Barometer With Thermometer Hygrometer 490mm picture


ANTIQUE JAPANESE NIPPON FIGURINE SET OF 3 WOMEN GEISHA PLAYING DRUM BANJO FAN
$24.0
ANTIQUE JAPANESE NIPPON FIGURINE SET OF 3 WOMEN GEISHA PLAYING DRUM BANJO FAN picture