Your One-Stop Source For
Music Lyrics
Bass and Guitar Tabs
and More...
Music Lyrics Bass and Guitar Tabs

 

The Tabs Are Below

Learn To Read Tab
Chords Handbook
Corrections & Additions
Get Official Tab
Goldfinger tabs @ 911Tabs

Band:Goldfinger

Song:I'm Down

Album:Stomping Ground

Tabber:FunkyDave

 

> mean's strum

INTRO/VERSE ()Second Verse only

G-------I--------------------------------

D-------I--------------------------------

A---5---I------5>--7>--3>-3-2-(3p2--3p2)-

E-------I-3>-4---5---7-------------------

 

CHORUS 1

G----------------------------------

D----------------------------------

A-----------3-3-3-3-3-----------3--

E-5-5-5-5-5-----------5-5-5-5-5----

 

Then play

Verse x2

Verse x2 with brackets

Verse x2 without brakets there's a pause in there

 

CHORUS 2

G------------------------------------------

D------------------------------------------

A-----------3-3-3-3-3-----------3-3-3-3-3--

E-5-5-5-5-5-----------5-5-5-5-5------------

 

CHORUS 2 continued (I'm not sure about this part)

G----------------------------------

D----------------------------------

A-1-1-X-X-1-1-X-X-1-1-X-X-1-1-X-X--

E----------------------------------

 

CHORUS 2 continued

G----------------------------------

D----------------------------------

A-2-2-X-X-2-2-X-X-2-2-X-X-2-2-X-X--

E----------------------------------

 

CHORUS 2 continued

G------------------------

D------------------------

A---3-2---5-3-2-3-2---4--

E-------3-----------3----

 

VERSE 3

G-------------------------

D-------------------------

A---------7>----9>--5>----

E---5>-4-----7----9----4--

 

CHORUS 3

G----------------------------------------------

D----------------------------------------------

A-------------3-3-3-3-3-----------3-3-3-3-2-1--

E---5-5-5-5-5-----------5-5-5-5-5--------------

 

THEN PLAY VERSE X1

 

OUTRO

G-------------

D-------------

A---3-2-0-----

E---------3---

 

 

 

 

Return to my to my Goldfinger bass tabs page

The Tablature is Copyright its respective owners.

Sign Up For My Newsletter
Subscribe | Unsubscribe

Site Map | Disclaimer | Privacy Policy | Media Kit | Submissions/Corrections

Website © 2000-2014 mattsmusicpage.com. All rights reserved.

Legal & DMCA: Matt's Music Page has been providing lyrics and tabs in a legal way, paying royalties each year to a few organizations. Then, all lyrics and tabs were removed from the site. Now, there's a new owner to the site, which purchased it August 26, 2014, and he is in negotiation to obtain licensing from BMI at the moment. If you have a specific DMCA request -- please do not hesitate to contact me via the contact button on top. I will do my very best to keep this site fully legal.

Get our toolbar!