Your One-Stop Source For
Music Lyrics
Bass and Guitar Tabs
and More...
Music Lyrics Bass and Guitar Tabs

 

The Tabs Are Below

Learn To Read Tab
Chords Handbook
Corrections & Additions
Get Official Tab
Goldfinger tabs @ 911Tabs

 

THE END OF THE DAY

 

INTRO/CHORUS

 

|------|------|------|------|

|------|------|------|------|

|5555|------|7777|------|

|------|6666|------|8888|

 

VERSE

 

|-----|-----|-----|-----|

|-----|-----|-----|-----|

|7--8|-----|7--8|-----|

|-----|5--6|-----|5--6|

 

TURN AROUND/BREAK

 

|2|4|9|

|2|4|9|

|0|2|7|

|--|--|0|

 

 

OUTRO

 

|------|------|------|------|

|------|------|------|------|

|------|1---3|------|1---3|

|1---3|------|1---3|------|

 

 

 

 

Return to my to my Goldfinger bass tabs page

The Tablature is Copyright its respective owners.

Sign Up For My Newsletter
Subscribe | Unsubscribe

Site Map | Disclaimer | Privacy Policy | Media Kit | Submissions/Corrections

Website © 2000-2014 mattsmusicpage.com. All rights reserved.

Legal & DMCA: Matt's Music Page has been providing lyrics and tabs in a legal way, paying royalties each year to a few organizations. Then, all lyrics and tabs were removed from the site. Now, there's a new owner to the site, which purchased it August 26, 2014, and he is in negotiation to obtain licensing from BMI at the moment. If you have a specific DMCA request -- please do not hesitate to contact me via the contact button on top. I will do my very best to keep this site fully legal.

Get our toolbar!