Your One-Stop Source For
Music Lyrics
Bass and Guitar Tabs
and More...
Music Lyrics Bass and Guitar Tabs

 

The Tabs Are Below

Learn To Read Tab
Chords Handbook
Corrections & Additions
Get Official Tab
Goldfinger tabs @ 911Tabs

 

Goldfinger - Authority

Transcribed by Lev Malevanchik LEVMAL@AOL.com

 

This song has many little fills in it that are hard to transcribe.

If someone finds anything that I haven't found, please email me.

 

 

INTRO (fast triplets) 2x

 

Guitar 1 "Yeah"

 

D C G

 

E--10-10-10--10-10-10--10-10-10--10-10-10--8-8-8--8-8-8--8-8-8--8-8-8

B--10-10-10--10-10-10--10-10-10--10-10-10--8-8-8--8-8-8--8-8-8--8-8-8

G--7--7--7---7--7--7---7--7--7---7--7--7---5-5-5--5-5-5--7-7-7--7-7-7

D--7--7--7---7--7--7---7--7--7---7--7--7---5-5-5--5-5-5--5-5-5--5-5-5

A--------------------------------------------------------------------

E--------------------------------------------------------------------

 

Guitar 2

 

D C G

 

E--------------------------------------------------------------------

B--------------------------------------------------------------------

G--------------------------------------------------------0-0-0--0-0-0

D--0--0--0---0--0--0---0--0--0---0--0--0-----------------------------

A------------------------------------------3-3-3--3-3-3--------------

E--------------------------------------------------------3-3-3--3-3-3

 

 

SOLO/INTRO

 

Guitar 1

 

E--------------------------------

B--------------------------------

G-----------------------------5-4

D--4-5-4-5/7--5--0---4-5-4-0-----

A--------------------------------

E--------------------------------

 

Guitar 2 strums D D C G (2x)

 

 

VERSE (both guitars) D G D C G

 

So you're just barely getting by, not hurting no one.

E---------------------------------------------------------------------

B--3----------------3----------------3--------------------1----------3

G--2----------------0----------------2-2------------------0----------0

D--0----------------0----------------0--------------2-----2-------0--0

A---------------------------------------------------------------------

E---------------------------------------------------------------------

 

Sometimes you think that you're alright. Sometimes you have fun.

 

E---------------------------------------------------------------------

B--3----------------3------------------3-------------------------1----

G--2----------------0------------------2-----------------2-----0------

D--0----------------0------------------0-----------0---------2-----2--

A---------------------------------------------------------------------

E---------------------------------------------------------------------

 

BRIDGE Guitar 1 holds the chord.

Guitar 2 plays them as many times as it is written

 

A G B C D

But on the way some one confronts you and tries to shut you up

 

4x 2x 1x 1x hold out

 

E----- ----- ----- ----- --10

B----- ----- ----- ----- --10

G----- ----- --4-4 --5-5 --7

D--7-7 --5-5 --4-4 --5-5 --7

A--7-7 --5-5 --2-2 --3-3

E--5-5 --3-3 ----- -----

 

 

 

INTRO (slightly different) 1x

 

Guitar 1

 

D C G

 

E--10-10-10--10-10-10--10-10-10--10-10-10-------------------------

B--10-10-10--10-10-10--10-10-10--10-10-10-------------------------

G--7--7--7---7--7--7---7--7--7---7--7--7--------------------------

D--7--7--7---7--7--7---7--7--7---7--7--7--------------------------

A-----------------------------------------------------------------

E-----------------------------------------------------------------

 

Guitar 2

 

D C G

 

E-----------------------------------------------------------------

B-------------------------------------------3---3---3----3---3---3

G-------------------------------------------0---0---0----0---0---0

D--0--0--0---0--0--0---0--0--0---0--0--0----0---0---0----0---0---0

A-------------------------------------------3---3---3----2---2---2

E-----------------------------------------------------------------

 

 

VERSE (strumming every beat) D G D C G

 

Guitar 1 & 2

 

You're having trouble at your home. You want to get out.

E-------------------------------------------------------------------

B-------------------------------------------------------------------

G--7-----------------------------------7-------------------5--------

D--7------------------5----------------7-------------------5-------5

A--5------------------5----------------5-------------------3-------5

E---------------------3--------------------------------------------3

 

Guitar 2

 

But you've got nowhere else to go. You gotta get out.

E------------------------------------------------------------------

B------------------------------------------------------------------

G--7-----------------------------------7-----------------0--------0

D--7------------------5----------------7--------------2--------0---

A--5------------------5----------------5-----------3--------2------

E---------------------3--------------------------------------------

 

Guitar 1 plays triplets of these notes the whole 2nd part of the VERSE

 

E-------------

B--3---3---3-- etc.

G----2---2---2 etc.

D-------------

A-------------

E-------------

 

BRIDGE Both guitars hold out the chords A G B C

 

But on the way some one confronts you and tries to tell you that

 

E----------------------------------------------------------

B----------------------------------------------------------

G-----------------------------------------------4---------5

D--7--------------------------5-----------------4---------5

A--7--------------------------5-----------------2---------3

E--5--------------------------3----------------------------

 

 

CHORUS same chords as VERSE (both guitars play)

 

D G D C G

You're going nowhere with your life whoa

D G D C G

You better listen to what's right whoa

A G G

Don't you see that I can't hear you. Hey Hey Hey

 

 

SOLO 2

 

Guitar 2 plays this 2x quietly

 

E---------------------------

B---------------------------

G---------------------------

D--4-5-4-5/7-7-7--5-5--0-0-0

A---------------------------

E---------------------------

 

Guitar 1 plays soft chords - D C G D C G

 

 

SOLO 3 - while guitar 2 plays soft chords - D C G D C G

 

Guitar 1 plays loudly

 

E--XX-------------------------------

B--XX-------------------------------

G--XX-----------------14-------12---

D--XX--4-5-4-5/7---14----14/12----12

A--XX-------------------------------

E--XX-------------------------------

 

E-------------------------------------------------------

B------------------------------------------------8------

G--7h11-11-11p7-7-7h11-11-11p7-7---7/9-9-9-7-7-7---7-7-7

D-------------------------------------------------------

A-------------------------------------------------------

E-------------------------------------------------------

 

 

BREAK

 

Guitar 2

 

E-----------------------------------------3-3

B-----------------------------------------3-3

G-----------------------------------------4-4

D--7--7-7-7--7-7-7--7--7--7-7-7---5--5----5-5

A--7--7-7-7--7-7-7--7--7--7-7-7---5--5----5-5

E--5--5-5-5--5-5-5--5--5--5-5-5---3--3----3-3

 

Guitar 1

 

E-----------------------------------------3-3

B---------------------------------3--0----3-3

G-----------------------------------------0-0

D--7--7-7-7--7-7-7--7--7--7-7-7-----------0-0

A--7--7-7-7--7-7-7--7--7--7-7-7-----------3-3

E--5--5-5-5--5-5-5--5--5--5-5-5-----------3-3

 

BREAK 2

 

Guitar 2 plays

 

E--2--2-2-2--2-2-2--0-0--2--0-----2--2-2-2--2-2-2----------------------------

B--3--3-3-3--3-3-3--3-3--3----3---3--3-3-3--3-3-3--3-3-3--3-3-3--3-3-3--3-3-3

G--2--2-2-2--2-2-2--2-0--2--------2--2-2-2--2-2-2--0-0-0--0-0-0--0-0-0--0-0-0

D--0--0-0-0--0-0-0--2-0--0--------0--0-0-0--0-0-0--0-0-0--0-0-0--0-0-0--0-0-0

A--------------------------------------------------3-3-3--3-3-3--2-2-2--2-2-2

E----------------------------------------------------------------------------

 

Guitar 1 plays

 

E----------------------------------------------------------------------------

B----------------------------------------------------------------------------

G----------------------------------------------------------------------------

D----------------------------------------------------------------------------

A--------------------------------------------------3-3-3--3-3-3--------------

E----------------------------------------------------------------3-3-3--3-3-3

 

 

VERSE - D G D C G

 

Guitar 1

 

So you're still barely getting by, not hurting no one.

E-------------------------------------------------------------

B-------------------------------------------------------------

G--7-----------------------------------7--------------5-------

D--7------------------5----------------7--------------5---5---

A--5------------------5----------------5--------------3---5---

E---------------------3-----------------------------------3---

 

Sometimes you think that you're alright. Sometimes you have fun.

 

E--------------------------------------------------------------------

B--------------------------------------------------------------------

G--7-------------------------------------7--------------------5------

D--7------------------5------------------7--------------------5-----5

A--5------------------5------------------5--------------------3-----5

E---------------------3---------------------------------------------3

 

Guitar 2 - play a fast triplet for every one note I have written down

- match this with the words above

 

E------------------------------------------------------------

B---------------------------------------------------------8-8

G--------------------------------------7---7---7---7--9-9----

D--7----7----7----7---9----9----9----9-----------------------

A------------------------------------------------------------

E------------------------------------------------------------

 

E----------------------------------------------------------------------

B--7----7----7----7---8----8----8----8---10---10---10---10----8-8---7-7

G----------------------------------------------------------------------

D----------------------------------------------------------------------

A----------------------------------------------------------------------

E----------------------------------------------------------------------

 

BRIDGE 2 (guitar 1 plays notes in []) A G B C

 

But don't you see that I can't understand (understand).

 

E--XX--------------------------------------------

B--XX--------------------------------------------

G--XX--------------------------------------4----5

D--XX--7-----------------------5-----------4----5

A--XX--7-----------------------5-----------2----3

E--XX--5-----------------------3-----------------

 

 

And don't you see that I can't hear you (can't hear you). Hey Hey Hey

 

E--XX-----------------------------------------------------

B--XX-----------------------------------------------------

G--XX-----------------------------------------------------

D--XX--7--------------------------5-[4]-[5]-[4]-----------

A--XX--7-------------------------[5]----------------------

E--XX--5--------------------------3-----------------------

 

 

CHORUS (both guitars play) 2x (2nd time with SOLO 4)

 

D G D C G

You're going nowhere with your life whoa

D G D C G

You better listen to what's right whoa

 

 

SOLO 4 (guitar 1) 4x *This part was hard to hear exactly. If anyone

can hear this even better, please let me know.

 

E--------------------

B--------------------

G--------------------

D--4-5-4-5/7--5-5-0-0

A--------------------

E--------------------

 

 

OUTRO

 

A G G D D

And don't you see that I can't hear you. I can't hear you.

 

Return to my to my Goldfinger tabs page

The Tablature is Copyright its respective owners.

Sign Up For My Newsletter
Subscribe | Unsubscribe

Site Map | Disclaimer | Privacy Policy | Media Kit | Submissions/Corrections

Website © 2000-2014 mattsmusicpage.com. All rights reserved.

Legal & DMCA: Matt's Music Page has been providing lyrics and tabs in a legal way, paying royalties each year to a few organizations. Then, all lyrics and tabs were removed from the site. Now, there's a new owner to the site, which purchased it August 26, 2014, and he is in negotiation to obtain licensing from BMI at the moment. If you have a specific DMCA request -- please do not hesitate to contact me via the contact button on top. I will do my very best to keep this site fully legal.

Get our toolbar!

 

Starbucks You Are Here Coffee Mug/Cup KENTUCKY - Horses, Banjo, Blue, White
$19.99
Starbucks You Are Here Coffee Mug/Cup KENTUCKY - Horses, Banjo, Blue, White picture


KNOWLES ROCKWELL HERITAGE "THE BANJO PLAYER" FIRST EDITION 1989 PLATE COA
$5.99
KNOWLES ROCKWELL HERITAGE


Vintage Postcard 1981 Disney World Banjo Kings Main Street USA 1981 Postmark
$4.99
 Vintage Postcard 1981 Disney World Banjo Kings Main Street USA 1981 Postmark picture


Banjo Barometer With Thermometer Hygrometer 490mm
$84.76
Banjo Barometer With Thermometer Hygrometer 490mm picture


ANTIQUE JAPANESE NIPPON FIGURINE SET OF 3 WOMEN GEISHA PLAYING DRUM BANJO FAN
$24.0
ANTIQUE JAPANESE NIPPON FIGURINE SET OF 3 WOMEN GEISHA PLAYING DRUM BANJO FAN picture