Your One-Stop Source For
Music Lyrics
Bass and Guitar Tabs
and More...
>Music Lyrics Bass and Guitar Tabs

 

The Tabs Are Below

Learn To Read Tab
Chords Handbook
Corrections & Additions
Get Official Tab
Goldfinger tabs @ 911Tabs

 

[This was created with TabIt for Windows version 1.3]

 

E :----------------|----------------|

B :----------------|----------------|

G :4---------------|----------------|

D :4---------------|----------------|

A :2---------------|----------------|

E :----------------|----------------|

 

E :11-11-11---11-11---11-11-11---11-11--|

B :-------------------------------------|

G :-8--8--8----8--8----8--8--8----8--8--|

D :-4--4--4-4--4--4-4--4--4--4-4--4--4-4|

A :-2--2--2-2--2--2-2--4--4--4-4--4--4-4|

E :--------------------2--2--2-2--2--2-2|

 

E :14-14-14---14-14---16-16-16-16-16---|-----11-11-11-9-9-9-11-6----|

B :------------------------------------|----------------------------|

G :11-11-11---11-11---13-13-13-13-13---|------8--8--8-6-6-6--8-6----|

D :-6--6--6-6--6--6-6--9--9--9--9--9---|4-*4--4--4--4---------------|

A :-6--6--6-6--6--6-6--7--7--7--7--7---|2-*2--2--2--2-4---*--4-4-4-4|

E :-4--4--4-4--4--4-4--0--0--0--0--0---|--------------2---*--2-2-2-2|

 

E :---11-11-11-11---12-11-7-9---11|-----11-11-11-9-9-9-11-9----|

B :-------------------------------|----------------------------|

G :----8--8--8--8----9--8-4-6----8|------8--8--8-6-6-6--8-6----|

D :------------------9--*-9-9-9--9|4-*4--4--4--4---------------|

A :6-*-6-----6--6-6--7--*-7-7-7--7|2-*2--2--2--2-4---*--4-4-4-4|

E :4-*-4-----4--4-4--0--*-0-0-0--0|--------------2---*--2-2-2-2|

 

E :---11-11-11-11-11-12-11-7-4---4|14----11-11-11-9-9-11-9---9|

B :-------------------------------|---------------------------|

G :----8--8--8--8--8--9--8-4-1---1|11-----8--8--8-6-6--8-6---6|

D :-------------------9--*-9-9-9-9|-*-4---4--4--4-2-2--2-2-2-2|

A :6-*-6-----6--6--6--7--*-7-7-7-7|-*-2---2--2--2-0-0--0-0-0-0|

E :4-*-4-----4--4--4--0--*-0-0-0-0|-*-------------------------|

 

E :12-11-7-9---11-----------|-----11-11-11-9-9-11-9----|

B :-------------------------|--------------------------|

G :-9--8-4-6----8-----------|------8--8--8-6-6--8-6----|

D :-2--2-2-2-2--2-4-4--4-4-4|*-4---4--4--4-2-2--2-2-2-2|

A :-2--2-2-2-2--2-2-2--2-2-2|*-2---2--2--2-0-0--0-0-0-0|

E :-0--0-0-0-0--0-----------|--------------------------|

 

E :12-11-7-9-----12---11-7---9-7--|7-----14-------12-11---9------|

B :-------------------------------|------------------------------|

G :-9--8-4-6------9----8-4---6-4--|4-----11--------9--8---6------|

D :-2--2-2-2-2-2--4-4--4-4-4-4-4-4|4-4-4----4-4-4--4----4-4-4-4-4|

A :-2--2-2-2-2-2--4-4--4-4-4-4-4-4|2-2-2----2-2-2--4----4-4-4-4-4|

E :-0--0-0-0-0-0--2-2--2-2-2-2-2-2|----------------2----2-2-2-2-2|

 

E :12-11-7---14-12---11-7-9-7--|7-----14-------12-11---9------|

B :----------------------------|------------------------------|

G :-9--8-4---11--9----8-4-6-4--|4-----11--------9--8---6------|

D :-2--2-2-2--2--2-2--2-2-2-2-2|4-4-4----4-4-4--4----4-4-4-4-4|

A :-2--2-2-2--2--2-2--2-2-2-2-2|2-2-2----2-2-2--4----4-4-4-4-4|

E :-0--0-0-0--0--0-0--0-0-0-0-0|----------------2----2-2-2-2-2|

 

E :12-11-7---14-12---11-12-11---12|

B :-------------------------------|

G :-9--8-4---11--9----8--9--8----9|

D :-2--2-2-2--2--2-2--2--2--2-2--2|

A :-2--2-2-2--2--2-2--2--2--2-2--2|

E :-0--0-0-0--0--0-0--0--0--0-0--0|

 

Return to my to my Goldfinger tabs page

The Tablature is Copyright its respective owners.

Sign Up For My Newsletter
Subscribe | Unsubscribe

Site Map | Disclaimer | Privacy Policy | Media Kit | Submissions/Corrections

Website © 2000-2014 mattsmusicpage.com. All rights reserved.

Legal & DMCA: Matt's Music Page has been providing lyrics and tabs in a legal way, paying royalties each year to a few organizations. Then, all lyrics and tabs were removed from the site. Now, there's a new owner to the site, which purchased it August 26, 2014, and he is in negotiation to obtain licensing from BMI at the moment. If you have a specific DMCA request -- please do not hesitate to contact me via the contact button on top. I will do my very best to keep this site fully legal.

Get our toolbar!

 

1976 POLYTONE 104 Amplifier George Benson Photo Vintage Print Ad
$9.95
1976 POLYTONE 104 Amplifier George Benson Photo Vintage Print Ad picture


AM-1780 Audio Amplifier
$249.0
AM-1780 Audio Amplifier picture


VINTAGE 1955 US ARMY TM 9-6085 ORDNANCE MOTOR DRIVE M2A2 & AMPLIFIER M1A2
$9.99
VINTAGE 1955 US ARMY TM 9-6085 ORDNANCE MOTOR DRIVE M2A2 & AMPLIFIER M1A2 picture


ROCKOLA 450 / 451/ 452 JUKEBOX PART: tested / working AMPLIFIER 47160-A
$175.0
 ROCKOLA 450 / 451/ 452  JUKEBOX PART:  tested / working  AMPLIFIER 47160-A picture


OLD VINTAGE ANTIQUE RCA RADIOLA V CRYSTAL DETECTOR RADIO AR-1300 AMPLIFIER
$9.99
OLD VINTAGE ANTIQUE RCA RADIOLA V CRYSTAL DETECTOR RADIO AR-1300 AMPLIFIER  picture