Your One-Stop Source For
Music Lyrics
Bass and Guitar Tabs
and More...
Music Lyrics Bass and Guitar Tabs

 

The Tabs Are Below

Learn To Read Tab
Chords Handbook
Corrections & Additions
Get Official Tab
Goldfinger tabs @ 911Tabs

 

Goldfinger - 99 Red Balloons.

Transcribed by Lev Malevanchik - LEVMAL@aol.com

 

INTRO - guitar 1 strums chords,

guitar 2 rapidly plays the bass note of each chord muted

 

E F#m A B

 

E--0-0-0---2-2-2---0-0-0---2-2-2

B--0-0-0---2-2-2---2-2-2---4-4-4

G--1-1-1---2-2-2---2-2-2---4-4-4

D--2-2-2---4-4-4---2-2-2---4-4-4

A--2-2-2---4-4-4---0-0-0---2-2-2

E--0-0-0---2-2-2----------------

 

VERSE - same chords as intro

 

You and I in a little toy shop... muted

Set them free... muted

Back at the base bugs... strummed like the intro

Floating in the... strummed like the intro

 

BREAK - guitar 1 plays notes (listen to song for timing)

 

E---------------

B---------------

G---------------

D---------------

A--7-7-----7-7--

E-------0------0

 

guitar 2 strums triplets 14x

 

E-------

B-------

G--9-9-9

D--9-9-9

A--7-7-7

E-------

 

BREAK 2 (4x) - both guitars play the same thing except for the end

 

E------------------------------------------------

B------------------------------------------------

G------------------------------------------------

D------------------------------------------------

A--7-7---7----9/11/9-7-7-7---7-7---7-----9-9-9/11

E------9---9---------------------9---9---7-7-7/9

 

*the 2nd and 4th times this is played, instead of this end,

there is a E bass note

*the 3rd time this is played, the first note is not played

 

VERSE - same chords but louder and more distortion

 

99 red balloons... strummed heavily

Panic bells... strummed heavily

The war machine... strummed every beat

Focusing it on... stummed heavily

 

SOLO

 

E---------------------------------

B--7-9-5-9-7-5---9-7-5-5---5---5-7

G--------------6---------6---6----

D---------------------------------

A---------------------------------

E---------------------------------

 

E---------------------------------------

B--(5)-7-9-5-9-7-5---9-7-5-5---12-9----9

G------------------6---------6------11--

D---------------------------------------

A---------------------------------------

E---------------------------------------

 

VERSE (listen to song)

 

99 decisions street... muted

To worry, worry... muted

This is what... strummed quickly every four beats

The President... strummed every beat

 

BREAK (2x)

 

Bass plays what guitar one did the 1st time

Guitar 2 plays the same thing

 

Guitar 1 plays a riff like the beginning of Break 2

 

E-------------------------------

B-------------------------------

G-------------------------------

D-------------------------------

A--7-7---7------7--7-7---7------

E------9---9-----------9---9/7-0

 

BREAK 2 - same as before

 

VERSE

 

99 kriegsminister... strummed heavily

Hielten sich... strummed heavily

Riefen kring... strummed heavily

Dass es einmal... strummed every beat

 

SOLO

 

SOLO 2 (4x)

 

E---------------

B--5-7-7-7-5-5-5

G---------------

D---------------

A---------------

E---------------

 

SOLO 3 (listen to song) play this note a lot then the other chords

 

E------ ---------------

B--12-- ---------------

G------ ---4-4-4-------

D------ ---4-4-4--2-4-2

A------ ---2-2-2------2

E------ --------------0

 

OUTRO - no distortion - same chords as INTRO strummed

 

99 dreams I...

It's all over...

If I could find...

And here it is... strum the chord on "let"

 

 

 

Return to my to my Goldfinger tabs page

The Tablature is Copyright its respective owners.

Sign Up For My Newsletter
Subscribe | Unsubscribe

Site Map | Disclaimer | Privacy Policy | Media Kit | Submissions/Corrections

Website © 2000-2014 mattsmusicpage.com. All rights reserved.

Legal & DMCA: Matt's Music Page has been providing lyrics and tabs in a legal way, paying royalties each year to a few organizations. Then, all lyrics and tabs were removed from the site. Now, there's a new owner to the site, which purchased it August 26, 2014, and he is in negotiation to obtain licensing from BMI at the moment. If you have a specific DMCA request -- please do not hesitate to contact me via the contact button on top. I will do my very best to keep this site fully legal.

Get our toolbar!