Your One-Stop Source For
Music Lyrics
Bass and Guitar Tabs
and More...
Music Lyrics Bass and Guitar Tabs

 

The Tabs Are Below

Learn To Read Tab
Chords Handbook
Corrections & Additions
Get Official Tab
Garbage tabs @ 911Tabs

*You Look So Fine*

Transcribed by Obscured@san.rr.com

Http://home.san.rr.com/obscured

 

 

Tuning: E A D G B E

 

 

INTRO/VERSE

 

Piano arranged for guitar

|-15----15----14----14----|

|----12----12----12----12-|

|-------------------------|

|-------------------------|

|-------------------------|

|-------------------------|

 

 

Guitar 1 plays this in the background

x4 x4 x4 x4

|---------|---------|---------|---------|

|---------|---------|---------|---------|

|---------|---------|---------|---------|

|---------|-2-2-2-2-|---------|-0-0-0-0-|

|-2-2-2-2-|-3-3-3-3-|-2-2-2-2-|-2-2-2-2-|

|-0-0-0-0-|---------|-3-3-3-3-|---------|

......................................

 

 

Guitar 2 - implied chords

|-0--0--3--2--|

|-0--1--3--3--|

|-0--0--0--4--|

|-2--2--0--4--|

|-2--3--2--2--|

|-0-----3-----|

 

 

CHORUS - *'s are the only chords actually strummed, the rest are implied

 

* * * *

|-0--3--0--2--0--3--0--0--|

|-1--3--0--3--1--3--0--1--|

|-0--0--0--4--0--0--0--0--|

|-2--0--2--4--2--0--2--2--|

|-3--2--2--2--3--2--2--3--|

|----3--0--------3--0-----|

 

Clean lead

|-------------------------|

|----------15-------------|

|-11-12-11----11-12-11----|

|-------------------------|

|-------------------------|

|-------------------------|

 

 

BRIDGE - Guitar 1 plays the verse rythm

 

Guitar 2 - All implied chords

|-0-----0-----0-----0-----3-----3-------2----2----|

|-0-----0-----1-----1-----3-----3-------3----3----|

|-0-----0-----0-----0-----0-----0-------4----4----|

|-2-----2-----2-----2-----0-----0-------4----4----|

|-2-----2-----3-----3-----2-----2-------2----2----|

|-0-----0-----------------3-----3-----------------|

|Guitar 3 - Doubles vocal line

|-------------------------------------------------|

|-------------------------------------------------|

|-11----12----11----12----11----9---7---11--------|

|-------------------------------------------------|

|-9-----10----9-----10----9-----7---5---9---------|

|-------------------------------------------------|

 

 

CHORUS 2 - Guitar 1 plays the same chords

 

Guitar 2

|-----------------------------------------------|

|-----------------------------------------------|

|-2-4-5-----4------9-----11--2-4-5-----4--------|

|-----------------------------------------------|

|-0-2-3-----2------7-----9---0-2-3-----2--------|

|-----------------------------------------------|

|Guitar 3

|-----------------------------------------------|

|-----------------------------------------------|

|-----------------------------------------------|

|-7-9-10----5--7-9-14----12--7-9-10----5--------|

|-----------------------------------------------|

|-----------------------------------------------|

 

A 4th guitar plays this right at the end

|-----------------------------|

|-----------------------------|

|-9h11-11/12-12p11-11(h12)----|

|-----------------------------|

|-----------------------------|

|-----------------------------|

 

 

VERSE 2 - Same

 

 

CHORUS 3 - Same as chorus 2

 

 

INTERLUDE

 

Guitar 1

|-----------------------------------------------------------------|

|-----------------------------------------------------------------|

|-----------------------------------------------------------------|

|-2-2-2-2-2-2-2-2-2-2-2-2-2-2-2-2---------------------------------|

|-3-3-3-3-3-3-3-3-3-3-3-3-3-3-3-3-2-2-2-2-2-2-2-2-2-2-2-2-2-2-2-2-|

|---------------------------------0-0-0-0-0-0-0-0-0-0-0-0-0-0-0-0-|

...............................................................

 

 

Guitar 2 - implied chords

|-0--0--|

|-1--0--|

|-0--0--|

|-2--2--|

|-3--2--|

|----0--|

 

 

OUTRO - With intro piano

 

Implied chord

|-0-|

|-0-|

|-0-|

|-2-|

|-2-|

|-0-|

 

 

Return to my to my Garbage tabs page

The Tablature is Copyright its respective owners.

Sign Up For My Newsletter
Subscribe | Unsubscribe

Site Map | Disclaimer | Privacy Policy | Media Kit | Submissions/Corrections

Website © 2000-2014 mattsmusicpage.com. All rights reserved.

Legal & DMCA: Matt's Music Page has been providing lyrics and tabs in a legal way, paying royalties each year to a few organizations. Then, all lyrics and tabs were removed from the site. Now, there's a new owner to the site, which purchased it August 26, 2014, and he is in negotiation to obtain licensing from BMI at the moment. If you have a specific DMCA request -- please do not hesitate to contact me via the contact button on top. I will do my very best to keep this site fully legal.

Get our toolbar!

 

1983 SEALED LP Return of the Jedi + 1977 Star Wars Vinyl 2 Record Set - Sci-Fi
$22.5
1983 SEALED LP Return of the Jedi + 1977 Star Wars Vinyl 2 Record Set - Sci-Fi picture


Frank Sinatra - Swingin Lovers & Sept of My Years (Reprise)[LP-Vinyl] RECORDS
$10.0
Frank Sinatra - Swingin Lovers & Sept of My Years (Reprise)[LP-Vinyl] RECORDS picture


Ion Audio Turntable & Vinyl Record Archiver with USB Connector TTUSB10 - EUC
$59.99
Ion Audio Turntable & Vinyl Record Archiver with USB Connector TTUSB10 - EUC picture


Vintage 1975 LP Big Rig Truckers LP Put the Hammer Down - Vinyl Record
$15.99
Vintage 1975 LP Big Rig Truckers LP Put the Hammer Down - Vinyl Record picture


1970`s Sanrio HELLO KITTY Vinyl Record STICKERS Vintage VERY RARE
$0.99
1970`s Sanrio HELLO KITTY Vinyl Record STICKERS Vintage VERY RARE picture