Your One-Stop Source For
Music Lyrics
Bass and Guitar Tabs
and More...
Music Lyrics Bass and Guitar Tabs

 

The Tabs Are Below

Learn To Read Tab
Chords Handbook
Corrections & Additions
Get Official Tab
Garbage tabs @ 911Tabs

*Wicked Ways*

Transcribed by Obscured@san.rr.com

Http://home.san.rr.com/obscured

 

 

Tuning: E A D G B E

 

 

INTRO/VERSE

|-----------|

|-5/7\5~~~~-|

|-5/7\5~~~~-|

|-----------|

|-----------|

|-----------|

 

 

Clean lead

|----------------------------|

|-----0------0------0------0-|

|---5------5------5------5---|

|-7------7------7------7-----|

|----------------------------|

|----------------------------|

 

 

PRECHORUS

|-------------|

|-------------|

|----2--5--7--|

|-3--2--5--7--|

|-3--0--3--5--|

|-1-----------|

 

 

CHORUS

|-------------|

|-------------|

|----5-----4--|

|-2--5--5--4--|

|-2--3--5--2--|

|-0-----3-----|

 

 

VERSE 2 - Same

 

 

PRECHORUS 2 - Same but twice

 

 

CHORUS 2 - Same

 

 

INTERLUDE

|-------------|

|-------------|

|----2--4-----|

|-4--2--4--5--|

|-4--0--2--5--|

|-2--------3--|

 

 

Lead

|-----------------------------|

|-----------------------------|

|-10b11~~-10b11~~-10b11~~\7~~-|

|-----------------------------|

|-----------------------------|

|-----------------------------|

 

 

|--------------------------------------|

|--------------------------------------|

|-10b11~~-10b11~~-10b11~~\7~~-7-6-7-9--|

|--------------------------------------|

|--------------------------------------|

|--------------------------------------|

 

 

VERSE 3

 

Lead

|----------------5----8\5----8----12----20\17----|

|-----------5------------------------------------|

|------5-----------------------------------------|

|-7----------------------------------------------|

|------------------------------------------------|

|------------------------------------------------|

 

 

PRECHORUS 3 - Same but three times

 

Lead

|-------------------------|

|-15b17-------------------|

|-------------------------|

|-------------------------|

|--------15b17r15--12~~\--|

|-------------------------|

 

 

CHORUS 3

|-------------|

|-------------|

|----5--2-----|

|-2--5--2--3--|

|-2--3--0--3--|

|-0--------1--|

 

 

OUTRO

|-------------------------|

|-------------------------|

|-------------------------|

|-3--3--3--3--3--3--3--3--|

|-3--3--3--3--3--3--3--3--|

|-1--1--1--1--1--1--1--1--|

 

End on

|---|

|---|

|-2-|

|-2-|

|-0-|

|---|

 

Lead

|-------------------20\17----|

|-------------17-------------|

|-------17-------------------|

|-19-------------------------|

|----------------------------|

|----------------------------|

 

 

Return to my to my Garbage tabs page

The Tablature is Copyright its respective owners.

Sign Up For My Newsletter
Subscribe | Unsubscribe

Site Map | Disclaimer | Privacy Policy | Media Kit | Submissions/Corrections

Website © 2000-2014 mattsmusicpage.com. All rights reserved.

Legal & DMCA: Matt's Music Page has been providing lyrics and tabs in a legal way, paying royalties each year to a few organizations. Then, all lyrics and tabs were removed from the site. Now, there's a new owner to the site, which purchased it August 26, 2014, and he is in negotiation to obtain licensing from BMI at the moment. If you have a specific DMCA request -- please do not hesitate to contact me via the contact button on top. I will do my very best to keep this site fully legal.

Get our toolbar!

 

1939 LYRIC THEATRE New York PHOTO
$5.83
1939 LYRIC THEATRE New York PHOTO picture


Star Spangled Banner or Marines Hymn lyrics signed by WWII Charles W. Lindberg
$10.0
Star Spangled Banner or Marines Hymn lyrics signed by WWII Charles W. Lindberg picture


OLD LARGE HISTORIC PHOTO OF THE LYRIC THEATRE, SYDNEY c1930s, WAR BONDS BOOTH
$7.42
OLD LARGE HISTORIC PHOTO OF THE LYRIC THEATRE, SYDNEY c1930s, WAR BONDS BOOTH picture


SONG OF REVOLUTION CARD SET WITH 13 MOST FAVORED COMMUNIST SONGS LYRICS + NOTES
$24.99
SONG OF REVOLUTION CARD SET WITH 13 MOST FAVORED COMMUNIST SONGS LYRICS + NOTES picture


OLD LARGE HISTORIC PHOTO OF THE LYRIC THEATRE, SYDNEY c1930s, WAR LOANS BOOTH
$7.42
OLD LARGE HISTORIC PHOTO OF THE LYRIC THEATRE, SYDNEY c1930s, WAR LOANS BOOTH picture