Your One-Stop Source For
Music Lyrics
Bass and Guitar Tabs
and More...
Music Lyrics Bass and Guitar Tabs

 

The Tabs Are Below

Learn To Read Tab
Chords Handbook
Corrections & Additions
Get Official Tab
Garbage tabs @ 911Tabs

*The Trick is to Keep Breathing*

Trancribed by Obscured@san.rr.com

Http://home.san.rr.com/obscured

 

 

Tuning: Eb Ab Db Gb Bb Eb

 

 

The chords throughout are implied chords that are played by keyboards

 

 

INTRO

|-4--0--4--0--|

|-5--0--5--0--|

|-6--1--6--1--|

|-6--2--6--2--|

|-4--2--4--2--|

|----0-----0--|

 

 

VERSE

|-4--0--4--0--4--0--2--0--|

|-5--0--5--0--5--0--2--0--|

|-6--1--6--1--6--1--3--1--|

|-6--2--6--2--6--2--4--2--|

|-4--2--4--2--4--2--4--2--|

|----0-----0-----0--2--0--|

 

 

CHORUS

|-4--7--6--2--|

|-4--7--7--2--|

|-4--8--8--3--|

|-6--9--8--4--|

|-6--9--6--4--|

|-4--7-----2--|

 

Clean guitar in background

|-----4-----4-----|-----------------|-6-----6-----6---|-----------------|

|---4-----4---4---|-7-----7-----7---|---7-----7-------|-7-----7---------|

|---------------4-|---8-----8-----8-|-----8-----8---8-|---8-------------|

|-6-----6---------|-----9-----9-----|-----------------|-----8-----------|

|-----------------|-----------------|-----------------|-----------------|

|-----------------|-----------------|-----------------|-----------------|

 

 

VERSE 2 - Same

 

 

CHORUS 2 - Same

 

 

BRIDGE

|-0--2--|

|-0--2--|

|-1--3--|

|-2--4--|

|-2--4--|

|-0--2--|

 

 

VERSE 3 - Same

 

 

CHORUS 4/OUTRO - Same and fade out..

 

 

Return to my to my Garbage tabs page

The Tablature is Copyright its respective owners.

Sign Up For My Newsletter
Subscribe | Unsubscribe

Site Map | Disclaimer | Privacy Policy | Media Kit | Submissions/Corrections

Website © 2000-2014 mattsmusicpage.com. All rights reserved.

Legal & DMCA: Matt's Music Page has been providing lyrics and tabs in a legal way, paying royalties each year to a few organizations. Then, all lyrics and tabs were removed from the site. Now, there's a new owner to the site, which purchased it August 26, 2014, and he is in negotiation to obtain licensing from BMI at the moment. If you have a specific DMCA request -- please do not hesitate to contact me via the contact button on top. I will do my very best to keep this site fully legal.

Get our toolbar!