Your One-Stop Source For
Music Lyrics
Bass and Guitar Tabs
and More...
Music Lyrics Bass and Guitar Tabs

 

The Tabs Are Below

Learn To Read Tab
Chords Handbook
Corrections & Additions
Get Official Tab
Garbage tabs @ 911Tabs

*Temptation Waits*

Transcribed by Obscured@san.rr.com

Http://home.san.rr.com/obscured

 

 

Tuning: E A D G B E

 

 

VERSE - Guitars tacet

 

 

CHORUS

|----------------------|

|----------------------|

|-6---------2----------|

|-6----4----2----2--6--|

|-4----4----0----2--6--|

|------2---------0--4--|

 

 

VERSE 2 - Same

 

Wah lead

|------------------------|

|------------------------|

|---9---7-9------9---7-9-|

|------------------------|

|-7---7-----7--7---7-----|

|------------------------|

 

 

CHORUS 2 - Same

 

 

BRIDGE

|----------------------(18)b19~~-|

|-------------19b21r19-----------|

|-18b20r18-----------------------|

|----------17--------------------|

|--------------------------------|

|--------------------------------|

 

 

INTERLUDE

|---------------------------------|

|---------------------------------|

|----14----12-14----16b17r16-14~~-|

|---------------------------------|

|-12----12-------12---------------|

|---------------------------------|

 

|---------------------------------|

|---------------------------------|

|----14----12-14------------------|

|-------------------16b17r16-14~~-|

|-12----12-------12---------------|

|---------------------------------|

 

 

VERSE 3 - Everything tacet

 

 

CHORUS 3

|-------------------------------------------|

|-------------------------------------------|

|-6---------2----------2----6---------2--4--|

|-6----4----2----2--6--2----6----4----2--4--|

|-4----4----0----2--6--0----4----4----0--2--|

|------2---------0--4------------2----------|

 

 

OUTRO

 

Wah lead

|------------------------|

|------------------------|

|---9---7-9------9---7-9-|

|------------------------|

|-7---7-----7--7---7-----|

|------------------------|

 

 

Synth lead

|--------------------------------------------------------|

|--------------------------------------------------------|

|-12-14-16-14--12----12/14----12-14-16-14--12----9/13----|

|-----------------12--------------------------12---------|

|--------------------------------------------------------|

|--------------------------------------------------------|

 

Return to my to my Garbage tabs page

The Tablature is Copyright its respective owners.

Sign Up For My Newsletter
Subscribe | Unsubscribe

Site Map | Disclaimer | Privacy Policy | Media Kit | Submissions/Corrections

Website © 2000-2014 mattsmusicpage.com. All rights reserved.

Legal & DMCA: Matt's Music Page has been providing lyrics and tabs in a legal way, paying royalties each year to a few organizations. Then, all lyrics and tabs were removed from the site. Now, there's a new owner to the site, which purchased it August 26, 2014, and he is in negotiation to obtain licensing from BMI at the moment. If you have a specific DMCA request -- please do not hesitate to contact me via the contact button on top. I will do my very best to keep this site fully legal.

Get our toolbar!