Your One-Stop Source For
Music Lyrics
Bass and Guitar Tabs
and More...
Music Lyrics Bass and Guitar Tabs

 

The Tabs Are Below

Learn To Read Tab
Chords Handbook
Corrections & Additions
Get Official Tab
Garbage tabs @ 911Tabs

*A Stroke of Luck*

Transcribed by Obscured@san.rr.com

Http://home.san.rr.com/obscured

 

 

Tuning: E A D G B E

 

 

INTRO

|-15----------18----------|

|----14-15-------14-15----|

|-------------------------|

|-------------------------|

|-------------------------|

|-------------------------|

 

 

VERSE - Guitars tacet

 

 

PRECHORUS

|-15-------------|

|----14-15-------|

|----------12----|

|----------------|

|----------------|

|----------------|

 

 

CHORUS

|-----------------------|

|---3----3----3---------|

|-0---------0----2b3r2--|

|------3----------------|

|-----------------------|

|-----------------------|

 

 

BRIDGE - Play intro

 

 

VERSE 2 - Same

 

 

PRECHORUS 2 - Same

 

 

CHORUS 2 - Same

 

 

BRIDGE

 

Hit this and sustain

|------------------|

|------------------|

|------------------|

|-5----------------|

|-5----------------|

|-3----------------|

 

Lead

|-1------3-----------|

|-----------3--------|

|--------------------|

|--------------------|

|--------------------|

|--------------------|

 

 

PRECHORUS 3 - Guitars tacet

 

 

CHORUS 3 - Same

 

 

BRIDGE 2/OUTRO - Same but with intro lead

 

 

Return to my to my Garbage tabs page

The Tablature is Copyright its respective owners.

Sign Up For My Newsletter
Subscribe | Unsubscribe

Site Map | Disclaimer | Privacy Policy | Media Kit | Submissions/Corrections

Website © 2000-2014 mattsmusicpage.com. All rights reserved.

Legal & DMCA: Matt's Music Page has been providing lyrics and tabs in a legal way, paying royalties each year to a few organizations. Then, all lyrics and tabs were removed from the site. Now, there's a new owner to the site, which purchased it August 26, 2014, and he is in negotiation to obtain licensing from BMI at the moment. If you have a specific DMCA request -- please do not hesitate to contact me via the contact button on top. I will do my very best to keep this site fully legal.

Get our toolbar!