Your One-Stop Source For
Music Lyrics
Bass and Guitar Tabs
and More...
Music Lyrics Bass and Guitar Tabs

 

The Tabs Are Below

Learn To Read Tab
Chords Handbook
Corrections & Additions
Get Official Tab
Garbage tabs @ 911Tabs

*Special*

Transcribed by Obscured@san.rr.com

Http://home.san.rr.com/obscured

 

 

Tuning: Eb Ab Db Gb Bb Eb

 

 

INTRO

|-------------------------------------------------------|

|-----0-----0---------0-----0---------0-----0---0--4----|

|---2-----2-----2---2-----2-----2-------------6----4----|

|-4-----4-----4---2-----2-----2-----4-----4--------4----|

|---------------------------------6-----6----------2----|

|-------------------------------------------------------|

 

 

VERSE

|-------------------------|

|-------------------------|

|----6-----6-----4-----4--|

|-2--6--2--6--4--4--4--4--|

|-2--4--2--4--4--2--4--2--|

|-0-----0-----2-----2-----|

 

Guitar 2 plays this the second time through

 

x2 x2

|-----------------|-----------------|

|-----------------|-----------------|

|-9-9-9-9-9-9-9-9-|-6-6-6-6-6-6-6-6-|

|-----------------|-----------------|

|-7-7-7-7-7-7-7-7-|-4-4-4-4-4-4-4-4-|

|-----------------|-----------------|

 

x2 x2

|-----------------|-----------------|

|-----------------|-----------------|

|-9-9-9-9-9-9-9-9-|-6-6-6-6-6-6-6-6-|

|-----------------|-----------------|

|-7-7-7-7-7-7-7-7-|-4-4-4-4-4-4-4-4-|

|-----------------|-----------------|

 

x2 x2

|-------------------------|-----------------|

|-------------------------|-----------------|

|-11-11-11-11-11-11-11-11-|-4-4-4-4-4-4-4-4-|

|-------------------------|-----------------|

|-9--9--9--9--9--9--9--9--|-2-2-2-2-2-2-2-2-|

|-------------------------|-----------------|

 

x2 x2

|-------------------------|-----------------|

|-------------------------|-----------------|

|-11-11-11-11-11-11-11-11-|-4-4-4-4-4-4-4-4-|

|-------------------------|-----------------|

|-9--9--9--9--9--9--9--9--|-2-2-2-2-2-2-2-2-|

|-------------------------|-----------------|

 

 

CHORUS

|----------------------------|

|----------------------------|

|-2--4--2--4-----2--4--6--4--|

|-2--4--2--4--4--2--1--6--4--|

|-0--2--0--2--4--0--2--4--2--|

|-------------2--------------|

 

 

Clean lead

x2

|-----4-2------4-2------4-2------4-2--|

|---0--------0--------0--------0------|

|-------------------------------------|

|-------------------------------------|

|-0--------0--------2--------2--------|

|-------------------------------------|

 

|---------------------------------------------------|

|-----0-----0---------0-----0---------0-----0-----4-|

|---2-----2-----2---2-----2-----2---------------6-4-|

|-4-----4-----4---2-----2-----2-----4-----4-------4-|

|---------------------------------6-----6-----4---2-|

|---------------------------------------------------|

 

 

VERSE 2 - Same

 

 

BRIDGE

|---------------|

|------0------0-|

|--------11-----|

|----8------8---|

|-11------------|

|---------------|

 

 

VERSE 3

|-------------|

|-------------|

|----4-----4--|

|-4--4--4--4--|

|-4--2--4--2--|

|-2-----2-----|

 

 

CHORUS 2

|----------------------------------|

|----------------------------------|

|-2--4--2--4--2--6--------4--6--4--|

|-2--4--2--4--2--6--4--2--1--6--4--|

|-0--2--0--2--0--4--4--2--2--4--2--|

|-------------------2--0-----------|

 

 

Clean lead

x2

|-----4-2------4-2------4-2------4-2--|

|---0--------0--------0--------0------|

|-------------------------------------|

|-------------------------------------|

|-0--------0--------2--------2--------|

|-------------------------------------|

 

|-----4-2------4-2------4-2------4-2--|

|---0--------0--------0--------0------|

|-------------------------------------|

|-------------------------------------|

|-0--------0--------4--------4--------|

|-------------------------------------|

 

|---------------------------------------------------|

|-----0-----0---------0-----0---------0-----0-----4-|

|---2-----2-----2---2-----2-----2---------------6-4-|

|-4-----4-----4---2-----2-----2-----4-----4-------4-|

|---------------------------------6-----6-----4---2-|

|---------------------------------------------------|

 

 

Another clean guitar enters about halfway through with this

x3

|-0-----0-----0-----0--------|-----0-----0---0------|

|---0-----0-----0-----0------|---7-----7-------0----|

|-----9-----8-----6-----9----|-8-----8-----6--(4)---|

|----------------------------|----------------------|

|----------------------------|----------------------|

|----------------------------|----------------------|

 

 

OUTRO

 

Play these 2 and fade out...

|-------|

|-------|

|-2--6--|

|-2--6--|

|-0--4--|

|-------|

 

 

Lead - doubles the background vocal line

|--------------------------|

|--------------------------|

|-9--8--11--9--8--6--8--9--|

|--------------------------|

|-7--6--9---7--6--4--6--7--|

|--------------------------|

 

 

Lead

|-------(0)----------(0)-------(0)-|

|-------(0)----------(0)-------(0)-|

|-11h13-----13-11-14-----14-13-----|

|----------------------------------|

|----------------------------------|

|----------------------------------|

 

Then a second harmony lead comes in just as it fades out

|-------(0)----------(0)-------(0)-|

|-------(0)----------(0)-------(0)-|

|-16h18-----18-16-20-----20-18-----|

|----------------------------------|

|----------------------------------|

|----------------------------------|

 

 

Return to my to my Garbage tabs page

The Tablature is Copyright its respective owners.

Sign Up For My Newsletter
Subscribe | Unsubscribe

Site Map | Disclaimer | Privacy Policy | Media Kit | Submissions/Corrections

Website © 2000-2014 mattsmusicpage.com. All rights reserved.

Legal & DMCA: Matt's Music Page has been providing lyrics and tabs in a legal way, paying royalties each year to a few organizations. Then, all lyrics and tabs were removed from the site. Now, there's a new owner to the site, which purchased it August 26, 2014, and he is in negotiation to obtain licensing from BMI at the moment. If you have a specific DMCA request -- please do not hesitate to contact me via the contact button on top. I will do my very best to keep this site fully legal.

Get our toolbar!

 

Starbucks You Are Here Coffee Mug/Cup KENTUCKY - Horses, Banjo, Blue, White
$19.99
Starbucks You Are Here Coffee Mug/Cup KENTUCKY - Horses, Banjo, Blue, White picture


KNOWLES ROCKWELL HERITAGE "THE BANJO PLAYER" FIRST EDITION 1989 PLATE COA
$5.99
KNOWLES ROCKWELL HERITAGE


Vintage Postcard 1981 Disney World Banjo Kings Main Street USA 1981 Postmark
$4.99
 Vintage Postcard 1981 Disney World Banjo Kings Main Street USA 1981 Postmark picture


Banjo Barometer With Thermometer Hygrometer 490mm
$84.76
Banjo Barometer With Thermometer Hygrometer 490mm picture


ANTIQUE JAPANESE NIPPON FIGURINE SET OF 3 WOMEN GEISHA PLAYING DRUM BANJO FAN
$24.0
ANTIQUE JAPANESE NIPPON FIGURINE SET OF 3 WOMEN GEISHA PLAYING DRUM BANJO FAN picture