Your One-Stop Source For
Music Lyrics
Bass and Guitar Tabs
and More...
Music Lyrics Bass and Guitar Tabs

 

The Tabs Are Below

Learn To Read Tab
Chords Handbook
Corrections & Additions
Get Official Tab
Garbage tabs @ 911Tabs

*Milk*

Transcribed by Obscured@san.rr.com

Http://home.san.rr.com/obscured

 

 

Tuning: E A D G B E

 

 

This song is just a keyboard but this tab is arranged for guitar

 

 

INTRO

|----0--------0--------0---------------------------------0----|

|-15---15-13----13-12----12-----0--------0--------0----0-0----|

|-16---16-14----14-12----12-14----14-12----12-11----11---9----|

|---------------------------16----16-14----14-12----12---9----|

|--------------------------------------------------------7----|

|--------------------------------------------------------0----|

 

 

VERSE

|-0----0----|

|-1----0----|

|-2----0----|

|-2----2----|

|-0----2----|

|------0----|

 

 

CHORUS

|-0----0----2----2----0----0---------0----|

|-1----1----2----2----1----1----4----1----|

|-2----0----3----3----2----0----4----0----|

|-2----2----4----4----2----2----4----2----|

|-0----3----4----4----0----3----2----3----|

|-----------2----2------------------------|

 

 

BRIDGE

|----0--------0--------0-------------------|

|-15---15-13----13-12----12-----0----------|

|-16---16-14----14-12----12-14----14-12----|

|---------------------------16----16-14----|

|------------------------------------------|

|------------------------------------------|

 

 

VERSE 2 - Same

 

 

CHORUS 2

x2

|-0----0----2----2----|-0----0----0----0----0----|

|-1----1----2----2----|-1----1----0----0----0----|

|-2----0----3----3----|-2----0----0----0----0----|

|-2----2----4----4----|-2----2----2----2----2----|

|-0----3----4----4----|-0----3----2----2----2----|

|-----------2----2----|-----------0----0----0----|

 

 

BRIDGE 2 - Play intro

 

 

VERSE 3 - Same

 

 

CHORUS 3

x4

|-0----0----0----0----|

|-1----1----0----0----|

|-2----0----0----0----|

|-2----2----2----2----|

|-0----3----2----2----|

|-----------0----0----|

 

 

OUTRO

|----0--------0--------0----------|

|-15---15-13----13-12----12-------|

|-16---16-14----14-12----12-14----|

|---------------------------16----|

|---------------------------------|

|---------------------------------|

 

End on

|----0--------0--------0---------------------------------0----|

|-15---15-13----13-12----12-----0--------0--------0----0-0----|

|-16---16-14----14-12----12-14----14-12----12-11----11---9----|

|---------------------------16----16-14----14-12----12---9----|

|--------------------------------------------------------7----|

|--------------------------------------------------------0----|

 

 

Return to my to my Garbage tabs page

The Tablature is Copyright its respective owners.

Sign Up For My Newsletter
Subscribe | Unsubscribe

Site Map | Disclaimer | Privacy Policy | Media Kit | Submissions/Corrections

Website © 2000-2014 mattsmusicpage.com. All rights reserved.

Legal & DMCA: Matt's Music Page has been providing lyrics and tabs in a legal way, paying royalties each year to a few organizations. Then, all lyrics and tabs were removed from the site. Now, there's a new owner to the site, which purchased it August 26, 2014, and he is in negotiation to obtain licensing from BMI at the moment. If you have a specific DMCA request -- please do not hesitate to contact me via the contact button on top. I will do my very best to keep this site fully legal.

Get our toolbar!

 

Starbucks You Are Here Coffee Mug/Cup KENTUCKY - Horses, Banjo, Blue, White
$19.99
Starbucks You Are Here Coffee Mug/Cup KENTUCKY - Horses, Banjo, Blue, White picture


KNOWLES ROCKWELL HERITAGE "THE BANJO PLAYER" FIRST EDITION 1989 PLATE COA
$5.99
KNOWLES ROCKWELL HERITAGE


Vintage Postcard 1981 Disney World Banjo Kings Main Street USA 1981 Postmark
$4.99
 Vintage Postcard 1981 Disney World Banjo Kings Main Street USA 1981 Postmark picture


Banjo Barometer With Thermometer Hygrometer 490mm
$84.76
Banjo Barometer With Thermometer Hygrometer 490mm picture


ANTIQUE JAPANESE NIPPON FIGURINE SET OF 3 WOMEN GEISHA PLAYING DRUM BANJO FAN
$24.0
ANTIQUE JAPANESE NIPPON FIGURINE SET OF 3 WOMEN GEISHA PLAYING DRUM BANJO FAN picture