Your One-Stop Source For
Music Lyrics
Bass and Guitar Tabs
and More...
>Music Lyrics Bass and Guitar Tabs

 

The Tabs Are Below

Learn To Read Tab
Chords Handbook
Corrections & Additions
Get Official Tab
Garbage tabs @ 911Tabs

*Hammering In My Head*

Transcribed by Obscured@san.rr.com

Http://home.san.rr.com/obscured

 

 

Tuning: Eb Ab Db Gb Bb Eb

 

 

INTRO/VERSE

|---------------------------------|

|----------11------13----13-14-11-|

|-12----12----12------------------|

|--------------------(10)---------|

|---(10)--------------------------|

|---------------------------------|

 

 

CHORUS - Guitars tacet

 

 

BRIDGE - Guitars tacet

 

 

VERSE 2 - Same

 

 

BRIDGE 2

|--------------------------------|

|-----------------------------6--|

|---7-6-7-----7-6-7-----7-6-7----|

|-0---------0---------0----------|

|--------------------------------|

|--------------------------------|

 

 

INTERLUDE

|-22b23r22b23r22--17b18--|

|------------------------|

|------------------------|

|------------------------|

|------------------------|

|------------------------|

 

 

Lead

|---------------------------------|

|----------11------13----13-14-11-|

|-12----12----12------------------|

|--------------------(10)---------|

|---(10)--------------------------|

|---------------------------------|

 

 

OUTRO - Guitars tacet

 

 

Return to my to my Garbage tabs page

The Tablature is Copyright its respective owners.

Sign Up For My Newsletter
Subscribe | Unsubscribe

Site Map | Disclaimer | Privacy Policy | Media Kit | Submissions/Corrections

Website © 2000-2014 mattsmusicpage.com. All rights reserved.

Legal & DMCA: Matt's Music Page has been providing lyrics and tabs in a legal way, paying royalties each year to a few organizations. Then, all lyrics and tabs were removed from the site. Now, there's a new owner to the site, which purchased it August 26, 2014, and he is in negotiation to obtain licensing from BMI at the moment. If you have a specific DMCA request -- please do not hesitate to contact me via the contact button on top. I will do my very best to keep this site fully legal.

Get our toolbar!

 

Vintage Reuge Music Jewelry Box with Flower Inlay and Key - Munich
$144.0
Vintage Reuge Music Jewelry Box with Flower Inlay and Key - Munich picture


Vintage SANKYO Japan Lucite acrylic Plastic Piano Music Box
$8.99
Vintage SANKYO Japan Lucite acrylic Plastic Piano Music Box picture


ETHNIC 30s VINTAGE UKULELE LADY MUSIC HAWAII NUDE WOMAN HULA DANCER BREAST PHOTO
$9.99
ETHNIC 30s VINTAGE UKULELE LADY MUSIC HAWAII NUDE WOMAN HULA DANCER BREAST PHOTO picture


VINTAGE RUB RED CHENILLE WITH GOLD MUSICAL JEWELRY BOX
$12.99
VINTAGE RUB RED CHENILLE WITH GOLD MUSICAL JEWELRY BOX  picture


Melody in Motion Vintage Porcelain Willie the Clown w/ Trumpet "The Music Works"
$59.99
Melody in Motion Vintage Porcelain Willie the Clown w/ Trumpet