Your One-Stop Source For
Music Lyrics
Bass and Guitar Tabs
and More...
>Music Lyrics Bass and Guitar Tabs

 

The Tabs Are Below

Learn To Read Tab
Chords Handbook
Corrections & Additions
Get Official Tab
Garbage tabs @ 911Tabs

*Fix me Now*

Transcribed by Obscured@san.rr.com

Http://home.san.rr.com/obscured

 

 

Tuning: E A D G B E

 

 

INTRO

x2

|--------------------------------------|

|--------------------------------------|

|-9-7---7-9-9b10r9----9-7---7-9-7------|

|-9-7-9-7-9-9b10r9----9-7-9-7-9-7-9----|

|-----9-------------------9-------9----|

|--------------------------------------|

 

 

VERSE

|--------------------------------------|

|--------------------------------------|

|-9-7---7-9-9b10r9---------------------|

|-9-7-9-7-9-9b10r9---------------------|

|-----9--------------------------------|

|--------------------------------------|

 

 

CHORUS

|-----------------------------------------------------------------|

|-----------------------------------------------------------------|

|-7-7-7-7-----------------2-2-2-2-7-7-7-7-------------------------|

|-7-7-7-7-5-5-5-5-2-2-2-2-2-2-2-2-7-7-7-7-5-5-5-5-2-2-2-2-4-4-4-4-|

|-5-5-5-5-5-5-5-5-2-2-2-2-0-0-0-0-5-5-5-5-5-5-5-5-2-2-2-2-4-4-4-4-|

|---------3-3-3-3-0-0-0-0-----------------3-3-3-3-0-0-0-0-2-2-2-2-|

 

 

VERSE 2 - Same

 

 

CHORUS 2 - Same

 

 

SOLO

 

Rhythm

|---------------------|

|---------------------|

|-3----7---------2----|

|-3----7----5----2----|

|-1----5----5----0----|

|-----------3---------|

 

Lead

|-------------------------|

|-------12gb13~~~~r12-10--|

|----10-------------------|

|-12----------------------|

|-------------------------|

|-------------------------|

 

Lead las time

|---------------------------|

|-------12gb13~~~~r12-9b10--|

|----10---------------------|

|-12------------------------|

|---------------------------|

|---------------------------|

 

 

Play the verse riff just before verse 3

 

 

VERSE 3 - Guitars tacet first half

 

 

CHORUS 3

|-----------------------------------------------------------------|

|-----------------------------------------------------------------|

|-7-7-7-7-----------------2-2-2-2-7-7-7-7-------------------------|

|-7-7-7-7-5-5-5-5-2-2-2-2-2-2-2-2-7-7-7-7-5-5-5-5-2-2-2-2-4-4-4-4-|

|-5-5-5-5-5-5-5-5-2-2-2-2-0-0-0-0-5-5-5-5-5-5-5-5-2-2-2-2-4-4-4-4-|

|---------3-3-3-3-0-0-0-0-----------------3-3-3-3-0-0-0-0-2-2-2-2-|

 

|-----------------------------------------------------------------|

|-----------------------------------------------------------------|

|-7-7-7-7-----------------2-2-2-2-4-4-4-4-------------------------|

|-7-7-7-7-5-5-5-5-2-2-2-2-2-2-2-2-4-4-4-4-5-5-5-5-2-2-2-2-4-4-4-4-|

|-5-5-5-5-5-5-5-5-2-2-2-2-0-0-0-0-2-2-2-2-5-5-5-5-2-2-2-2-4-4-4-4-|

|---------3-3-3-3-0-0-0-0-----------------3-3-3-3-0-0-0-0-2-2-2-2-|

 

Lead

|--------------------|

|-----9gb10~~~~r9-7--|

|---7----------------|

|-9------------------|

|--------------------|

|--------------------|

 

Lead last time

|--------------------------|

|--------------------------|

|---7-9b11r9--9b11r9--7----|

|-9------------------------|

|--------------------------|

|--------------------------|

 

 

OUTRO - Play intro

 

 

Return to my to my Garbage tabs page

The Tablature is Copyright its respective owners.

Sign Up For My Newsletter
Subscribe | Unsubscribe

Site Map | Disclaimer | Privacy Policy | Media Kit | Submissions/Corrections

Website © 2000-2014 mattsmusicpage.com. All rights reserved.

Legal & DMCA: Matt's Music Page has been providing lyrics and tabs in a legal way, paying royalties each year to a few organizations. Then, all lyrics and tabs were removed from the site. Now, there's a new owner to the site, which purchased it August 26, 2014, and he is in negotiation to obtain licensing from BMI at the moment. If you have a specific DMCA request -- please do not hesitate to contact me via the contact button on top. I will do my very best to keep this site fully legal.

Get our toolbar!

 

AIR FRANCE - A HEBREW - FRENCH DICTIONARY ON A VINYL RECORD,ISRAEL,60's. cs4966
$39.95
AIR FRANCE - A HEBREW - FRENCH DICTIONARY ON A VINYL RECORD,ISRAEL,60's.  cs4966 picture


Vintage Super Heroes SuperCase Vinyl Records Superman Wonder Batman Joker
$38.0
Vintage Super Heroes SuperCase Vinyl Records Superman Wonder Batman Joker picture


DISNEY "SNOW WHITE & 7 DWARFS" 12" Vinyl LP Record w/Book DISNEYLAND RECORD 3906
$6.98
DISNEY


DISNEY "PETER PAN" 12" Vinyl LP Record w/ Book DISNEYLAND RECORD 3910
$6.98
DISNEY


DISNEY "The RESCUERS" 12" Vinyl LP Record DISNEYLAND RECORD 1369
$6.98
DISNEY