Your One-Stop Source For
Music Lyrics
Bass and Guitar Tabs
and More...
Music Lyrics Bass and Guitar Tabs

 

The Tabs Are Below

Learn To Read Tab
Chords Handbook
Corrections & Additions
Get Official Tab
Garbage tabs @ 911Tabs

*Dumb*

Transcribed by Obscured@san.rr.com

Http://home.san.rr.com/obscured

 

 

Tuning: E A D G B E

 

 

INTRO/VERSE

|--------------------------------|

|-13-13-12-12-10-10--------10-10-|

|--------------------11-11-------|

|--------------------------------|

|--------------------------------|

|--------------------------------|

..............................

 

 

Build up to prechorus

|-------------------------|

|-------------------------|

|-------------------7--4--|

|-4--4--4--4--4--4--7--4--|

|-4--4--4--4--4--4--5--2--|

|-2--2--2--2--2--2--------|

 

 

PRECHORUS

|----------------|

|----------------|

|----7--------4--|

|-2--7--4--2--4--|

|-2--5--4--2--2--|

|-0-----2--0-----|

 

Lead

|---------------------------------|

|---------------------------------|

|-6-6-6-4-6-6-6-4-6-6-6-4-6-7-6-4-|

|---------------------------------|

|---------------------------------|

|---------------------------------|

 

 

CHORUS

|------------------------|

|------------------------|

|-6--4--6--------4-------|

|-6--4--6--6--7--4--(4)--|

|-4--2--4--6--7--2--(4)--|

|----------4--5-----(2)--|

 

Lead

|----------------------------|

|------------------12--------|

|---------13~~--11----11-13--|

|-11~~~~---------------------|

|----------------------------|

|----------------------------|

 

 

VERSE 2

|-------------|

|-------------|

|----2--7--4--|

|-4--2--7--4--|

|-4--0--5--2--|

|-2-----------|

 

Lead

|-----------/14-------/16-------/16-17-16-17-16\--|

|-/14--/14-------/14-------/14--------------------|

|-------------------------------------------------|

|-------------------------------------------------|

|-------------------------------------------------|

|-------------------------------------------------|

 

 

|-/14-------/14-------/16-------/16-17-16-17b(19)-|

|------/14-------/14-------/14--------------------|

|-------------------------------------------------|

|-------------------------------------------------|

|-------------------------------------------------|

|-------------------------------------------------|

 

 

PRECHORUS 2 - Same

 

 

CHORUS 2 - Same

 

 

INTERLUDE

|-------------|

|-------------|

|----2--7--4--|

|-4--2--7--4--|

|-4--0--5--2--|

|-2-----------|

 

 

1.2.3.5.6.7.9.10.

|-------|

|-------|

|-10-11-|

|-------|

|-------|

|-------|

 

4.8.

|-------------------|

|-------------------|

|-10-11-13-13b14r13-|

|-------------------|

|-------------------|

|-------------------|

 

11.

|------|

|------|

|-10\6-|

|------|

|------|

|------|

 

 

CHORUS 3

|-----------------------------------------------|

|-----------------------------------------------|

|-6--4--6--------4----------4-----------4-------|

|-6--4--6--6--7--4--4----7--4--4--6--7--4--4----|

|-4--2--4--6--7--2--4----7--2--4--6--7--2--4----|

|----------4--5-----2----5-----2--4--5-----2----|

 

 

OUTRO - With verse 2 lead

|-------------------------|

|-------------------------|

|-------------------------|

|-4--4--4--4--4--4--4--4--|

|-4--4--4--4--4--4--4--4--|

|-2--2--2--2--2--2--2--2--|

 

End on

|---|

|---|

|---|

|-4-|

|-4-|

|-2-|

 

 

Return to my to my Garbage tabs page

The Tablature is Copyright its respective owners.

Sign Up For My Newsletter
Subscribe | Unsubscribe

Site Map | Disclaimer | Privacy Policy | Media Kit | Submissions/Corrections

Website © 2000-2014 mattsmusicpage.com. All rights reserved.

Legal & DMCA: Matt's Music Page has been providing lyrics and tabs in a legal way, paying royalties each year to a few organizations. Then, all lyrics and tabs were removed from the site. Now, there's a new owner to the site, which purchased it August 26, 2014, and he is in negotiation to obtain licensing from BMI at the moment. If you have a specific DMCA request -- please do not hesitate to contact me via the contact button on top. I will do my very best to keep this site fully legal.

Get our toolbar!

 

1939 LYRIC THEATRE New York PHOTO
$5.83
1939 LYRIC THEATRE New York PHOTO picture


Star Spangled Banner or Marines Hymn lyrics signed by WWII Charles W. Lindberg
$10.0
Star Spangled Banner or Marines Hymn lyrics signed by WWII Charles W. Lindberg picture


OLD LARGE HISTORIC PHOTO OF THE LYRIC THEATRE, SYDNEY c1930s, WAR BONDS BOOTH
$7.42
OLD LARGE HISTORIC PHOTO OF THE LYRIC THEATRE, SYDNEY c1930s, WAR BONDS BOOTH picture


SONG OF REVOLUTION CARD SET WITH 13 MOST FAVORED COMMUNIST SONGS LYRICS + NOTES
$24.99
SONG OF REVOLUTION CARD SET WITH 13 MOST FAVORED COMMUNIST SONGS LYRICS + NOTES picture


OLD LARGE HISTORIC PHOTO OF THE LYRIC THEATRE, SYDNEY c1930s, WAR LOANS BOOTH
$7.42
OLD LARGE HISTORIC PHOTO OF THE LYRIC THEATRE, SYDNEY c1930s, WAR LOANS BOOTH picture