Your One-Stop Source For
Music Lyrics
Bass and Guitar Tabs
and More...
Music Lyrics Bass and Guitar Tabs

 

The Tabs Are Below

Learn To Read Tab
Chords Handbook
Corrections & Additions
Get Official Tab
Garbage tabs @ 911Tabs

*Dog New Tricks*

Transcribed by Obscured@san.rr.com

Http://home.san.rr.com/obscured

 

 

Tuning: E A D G B E

 

 

INTRO

 

Guitar 1

|---------------------------------------------|

|---------------------------------------------|

|----------5--4-------------------------------|

|-2---4-5--------5--7/9-----------------------|

|----------3--2-------------------------------|

|-0---2-3--------3--5/7-----------------------|

|Guitar 2

|---------------------------------------------|

|---------------------------------------------|

|-----7-7--------------------7-7--------------|

|-2---7-7-----------7----2---7-7-----------9--|

|-2---5-5--7--------7----2---5-5--5--------9--|

|-0--------8--------5----0--------6--------7--|

 

2 guitars arranged for 1

|---------------------------------------------|

|---------------------------------------------|

|----------5--4--------------7-7--------------|

|-2---4-5--5--4--5--7/9--2---7-7--8--------9--|

|-2---4-5--3--2--5--7/9--2---5-5--8--------9--|

|-0---2-3--------3--5/7--0--------6--------7--|

 

 

VERSE

|---------------------------------------------|

|---------------------------------------------|

|-----7-7--------------------7-7--------------|

|-2---7-7-----------7----2---7-7-----------9--|

|-2---5-5--7--------7----2---5-5--5--------9--|

|-0--------8--------5----0--------6--------7--|

 

 

CHORUS

|----------------------|

|----------------------|

|-5----------------5-7-|

|-5----6----8------5-7-|

|-3----3----8------3-5-|

|------4----6----------|

 

 

BRIDGE - Play intro

 

 

VERSE 2 - Same

 

 

CHORUS 2 - Same

 

 

INTERLUDE

 

Guitar 1

|--------------------------------|

|--------------------------------|

|---------6----------------------|

|-4-------6-----2-------7--------|

|-4-------4-----2-------7--------|

|-2-------------0-------5--------|

|Guitar 2

|-0h2-2---5-2---0--2-------------|

|-------2-----2-------2----------|

|-----------------------2--------|

|--------------------------------|

|--------------------------------|

|--------------------------------|

 

Guitar 1

|--------------------------------|

|--------------------------------|

|---------6----------------------|

|-4-------6-----2-------7--------|

|-4-------4-----2-------7--------|

|-2-------------0-------5--------|

|Guitar 2

|-0h2-2---5-2---0----------------|

|-------2-----2------------------|

|--------------------------------|

|--------------------------------|

|--------------------------------|

|--------------------------------|

 

 

BRIDGE 2 - Same

 

 

VERSE 3 - Guitars tacet

 

 

CHORUS 3 - Same

 

 

INTERLUDE 2 - Same

 

 

OUTRO - Play intro

 

End on

|------|

|------|

|------|

|-2----|

|-2----|

|-0----|

 

 

Return to my to my Garbage tabs page

The Tablature is Copyright its respective owners.

Sign Up For My Newsletter
Subscribe | Unsubscribe

Site Map | Disclaimer | Privacy Policy | Media Kit | Submissions/Corrections

Website © 2000-2014 mattsmusicpage.com. All rights reserved.

Legal & DMCA: Matt's Music Page has been providing lyrics and tabs in a legal way, paying royalties each year to a few organizations. Then, all lyrics and tabs were removed from the site. Now, there's a new owner to the site, which purchased it August 26, 2014, and he is in negotiation to obtain licensing from BMI at the moment. If you have a specific DMCA request -- please do not hesitate to contact me via the contact button on top. I will do my very best to keep this site fully legal.

Get our toolbar!

 

Starbucks You Are Here Coffee Mug/Cup KENTUCKY - Horses, Banjo, Blue, White
$19.99
Starbucks You Are Here Coffee Mug/Cup KENTUCKY - Horses, Banjo, Blue, White picture


KNOWLES ROCKWELL HERITAGE "THE BANJO PLAYER" FIRST EDITION 1989 PLATE COA
$5.99
KNOWLES ROCKWELL HERITAGE


Vintage Postcard 1981 Disney World Banjo Kings Main Street USA 1981 Postmark
$4.99
 Vintage Postcard 1981 Disney World Banjo Kings Main Street USA 1981 Postmark picture


Banjo Barometer With Thermometer Hygrometer 490mm
$84.76
Banjo Barometer With Thermometer Hygrometer 490mm picture


ANTIQUE JAPANESE NIPPON FIGURINE SET OF 3 WOMEN GEISHA PLAYING DRUM BANJO FAN
$24.0
ANTIQUE JAPANESE NIPPON FIGURINE SET OF 3 WOMEN GEISHA PLAYING DRUM BANJO FAN picture