Your One-Stop Source For
Music Lyrics
Bass and Guitar Tabs
and More...
>Music Lyrics Bass and Guitar Tabs

 

The Tabs Are Below

Learn To Read Tab
Chords Handbook
Corrections & Additions
Get Official Tab
Garbage tabs @ 911Tabs

GARBAGE

Supervixen

Tunning: Eb A D G

 

Intro

----------------------------------------------------------------------

----------------1-1-1-------------------------------------------------

-------3--3-3---------1--1-3-------3--3-3---6-6-6-6-6-6-6-6-----------

-2---2-----------------------2---2------------------------------------

 

Verse

------4--4------4--4------4--4----------------------------------------

-6--6------4--4------6--6---------------4-----------------------------

-------------------------------7--7--7--------------------------------

----------------------------------------------------------------------

 

Chorus

----------------------------------------------------------------------

----------------------------------------------------------------------

-1--1-------------------1--1------------------------------------------

------5--5-0--2-3-3-3--------5--5-0-0-0-2-3-3-3-5---------------------

 

Bridge (*= x7)

----------------------------------------------------------------------

----------------------------------------------------------------------

-1--1-------------------1--1------------------------------------------

------5--5-0--2-3-3-3--------5--5-0*-2-3*-3---------------------------

 

Outro (&= x8)

----------------------------|-----------------------------------------

----------------------------|-----------------------------------------

-----------4-4-4-4-7-7-7-7--|-----------4&-7&-------------------------

-5--5-3--3------------------|-5--5-3--3-------------------------------

 

Order:

Intro (x2)

Verse (x2)

Chorus (x2)

Verse (x2)

Chorus (x1)

Bridge (x1)

Intro (x2)

Outro (1st part x3, 2nd part x1)

Chorus (x1)

Bridge (x1)

Intro (repeats 'til the end)

 

 

Return to my to my Garbage bass tabs page

The Tablature is Copyright its respective owners.

Sign Up For My Newsletter
Subscribe | Unsubscribe

Site Map | Disclaimer | Privacy Policy | Media Kit | Submissions/Corrections

Website © 2000-2014 mattsmusicpage.com. All rights reserved.

Legal & DMCA: Matt's Music Page has been providing lyrics and tabs in a legal way, paying royalties each year to a few organizations. Then, all lyrics and tabs were removed from the site. Now, there's a new owner to the site, which purchased it August 26, 2014, and he is in negotiation to obtain licensing from BMI at the moment. If you have a specific DMCA request -- please do not hesitate to contact me via the contact button on top. I will do my very best to keep this site fully legal.

Get our toolbar!

 

Memphis Ashtray Blues Soul & Rock n Roll, Guitar, Music Note, Green, Red w/ Gold
$10.99
Memphis Ashtray Blues Soul & Rock n Roll, Guitar, Music Note, Green, Red w/ Gold picture


12023 - GIRLS OF ROCK, Fender (Guitar Mania) Mini Replica Guitar
$28.0
12023 - GIRLS OF ROCK,  Fender (Guitar Mania) Mini Replica Guitar picture


SURFERS PARADISE 20TH ANNIVERSARY SURFBOARD & WHALE GUITAR Hard Rock Cafe PIN LE
$39.99
SURFERS PARADISE 20TH ANNIVERSARY SURFBOARD & WHALE GUITAR Hard Rock Cafe PIN LE picture


Pile Mix 12AU7 ECC82 Twin Triode f/ Old Ham Radio Receiver Tube Guitar Audio Amp
$2.0
Pile Mix 12AU7 ECC82 Twin Triode f/ Old Ham Radio Receiver Tube Guitar Audio Amp picture


SURFERS PARADISE 3D SKYLINE SERIES SURFBOARD BEACH GUITAR Hard Rock Cafe PIN LE
$39.99
SURFERS PARADISE 3D SKYLINE SERIES SURFBOARD BEACH GUITAR Hard Rock Cafe PIN LE picture