Your One-Stop Source For
Music Lyrics
Bass and Guitar Tabs
and More...
>Music Lyrics Bass and Guitar Tabs

 

The Tabs Are Below

Learn To Read Tab
Chords Handbook
Corrections & Additions
Get Official Tab
Garbage tabs @ 911Tabs

Garbage - Sleep Together

 

G|----------------------|-----------------|

D|----------------------|-----------------|

A|-111114-------111114--|-1--1114-------1-|

E|-------2-22224------2-|--44----2222224--|

 

G|-----------------------------------------------------------|

D|-------------------------66666666--------------------------|

A|-1111111---------11111111--------66666666------------------|

E|--------422222222------------------------22222222444444444-|

 

G|-----------------------|

D|-----------------------|

A|-1/1---1/1-1-----------|

E|----2-4---2-4/4-44-2/2-|

 

 

Return to my to my Garbage bass tabs page

The Tablature is Copyright its respective owners.

Sign Up For My Newsletter
Subscribe | Unsubscribe

Site Map | Disclaimer | Privacy Policy | Media Kit | Submissions/Corrections

Website © 2000-2014 mattsmusicpage.com. All rights reserved.

Legal & DMCA: Matt's Music Page has been providing lyrics and tabs in a legal way, paying royalties each year to a few organizations. Then, all lyrics and tabs were removed from the site. Now, there's a new owner to the site, which purchased it August 26, 2014, and he is in negotiation to obtain licensing from BMI at the moment. If you have a specific DMCA request -- please do not hesitate to contact me via the contact button on top. I will do my very best to keep this site fully legal.

Get our toolbar!

 

Antique 2-1/4" Pendulum With Key for Banjo, Ogee Bracket Clock (191X)
$7.99
Antique 2-1/4


Vintage MUSICIAN Snapshot Photo 1920s GUITAR & BANJOS
$4.0
Vintage MUSICIAN Snapshot Photo 1920s GUITAR & BANJOS picture


VINTAGE SESSIONS BANJO CLOCK , MT. VERNON ELECTRIC- SELF STARTING
$52.99
VINTAGE SESSIONS BANJO CLOCK , MT. VERNON ELECTRIC- SELF STARTING picture


1984 Press Photo Musical performer Bertram Levy with banjo & accordion
$16.88
1984 Press Photo Musical performer Bertram Levy with banjo & accordion picture