Your One-Stop Source For
Music Lyrics
Bass and Guitar Tabs
and More...
Music Lyrics Bass and Guitar Tabs

 

The Tabs Are Below

Learn To Read Tab
Chords Handbook
Corrections & Additions
Get Official Tab
Garbage tabs @ 911Tabs

*As Heaven is Wide*

Transcribed by Obscured@san.rr.com

Http://home.san.rr.com/obscured

 

 

Tuning: Eb Ab Db Gb Bb Eb

 

 

INTRO - Bass

|------------------------------|

|-----2------------2-----------|

|---------1------------1b2r1---|

|-0-0---0------0-0---0-------3-|

 

 

VERSE - Guitars tacet

 

 

PRECHORUS

|---------------------|

|---------------------|

|-2----4----5----7----|

|-2----4----5----7----|

|-0----2----3----5----|

|---------------------|

 

 

CHORUS

|-7------7----6------6----|

|------8-----------8------|

|----9-----------9--------|

|-------------------------|

|-------------------------|

|-------------------------|

 

 

BRIDGE

|---------------------|

|---------------------|

|-11------9-12------9-|

|---------------------|

|-9-------7-10------7-|

|---------------------|

 

 

VERSE 2

|-----------------------------------------|

|-----------------------------------------|

|-9/12-9----9/12-9----9/14-9----9/12-7----|

|-9/12-9----9/12-9----9/14-9----9/12-7----|

|-7/10-7----7/10-7----7/12-7----7/10-5----|

|-----------------------------------------|

 

 

PRECHORUS 2 - Same

 

 

CHORUS 2 - Same

 

 

VERSE 3 - Guitars tacet

 

 

PRECHORUS 3 - Same

 

 

CHORUS 3 - Same

 

 

OUTRO

|-------------------------|

|-------------------------|

|----(9)-(9)-(9)----------|

|----(9)-(9)-(9)-----5----|

|-----7---7---7------5----|

|-0-0---0---0---0----3----|

 

 

Return to my to my Garbage tabs page

The Tablature is Copyright its respective owners.

Sign Up For My Newsletter
Subscribe | Unsubscribe

Site Map | Disclaimer | Privacy Policy | Media Kit | Submissions/Corrections

Website © 2000-2014 mattsmusicpage.com. All rights reserved.

Legal & DMCA: Matt's Music Page has been providing lyrics and tabs in a legal way, paying royalties each year to a few organizations. Then, all lyrics and tabs were removed from the site. Now, there's a new owner to the site, which purchased it August 26, 2014, and he is in negotiation to obtain licensing from BMI at the moment. If you have a specific DMCA request -- please do not hesitate to contact me via the contact button on top. I will do my very best to keep this site fully legal.

Get our toolbar!