Your One-Stop Source For
Music Lyrics
Bass and Guitar Tabs
and More...
Music Lyrics Bass and Guitar Tabs

 

The Tabs Are Below

Learn To Read Tab
Chords Handbook
Corrections & Additions
Get Official Tab
Fuel tabs @ 911Tabs

FUEL - SUNBURN

BASS TABLATURE

 

STANDARD TUNING

 

When I sat down to tab this song i didn't realise it had so many fills in it.

But never fear the fills arent that hard, they still sound kewl though. This band

rocks and I hope to see lots of you bass folk out there learning more songs like this

ROCK ON

MATT

 

 

INTRO

 

G-----------------------------| G-----------|

D-----------7-----------------| D-----------|

A-----------------------5-5h7-| first time A-----5h7---| second time

E--0--3--5------5-5h7-8-------| E--0-------5|

 

 

VERSE

 

G-----------------------------| G-----------------------|

D-----------7-----------------| D------------7----------|

A-----------------------5-5h7-| first time A-----5h7--------------5| second time

E--0--3--5------5-5h7-8-------| E--0-------5-----0-5h7--|

 

The fills change a little but thats basically it

 

PRE-CHORUS

 

play b4 all 1st time 2nd time 3rd Time

G-------------| |-----4| |-----/16-| |-------|

D-------------| |---5--| |---5-----| |-------|

A--3-3h5p3----| |-3----| |-3-------| |-3--5--|

E-------------| |------| |---------| |-------|

 

CHORUS

 

G--------------------------| |----------------|

D-------------------5-4----| |----------------|

A--------3--5---5h7-----7-5| |--------------5-|

E--0--0--------------------| |--5-5-5-3h5-5---|

 

 

Fill into breakdown

G---------|

D---------|

A--5-3-2--|

E--------5|

 

BREAKDOWN

 

G------| |------------|

D------| with breakdown fill X3 |------------|

A------| |--3--5---/17|

E--5--0| |------------|

 

well thats about it, i hope you can all follow it

Any queries comments, praises, death threats to Tsepesh18@hotmail.com

Tabbed by Matt Bliesner

 

 

Return to my Fuel bass tabs page

The Tablature is Copyright its respective owners.

Sign Up For My Newsletter
Subscribe | Unsubscribe

Site Map | Disclaimer | Privacy Policy | Media Kit | Submissions/Corrections

Website © 2000-2014 mattsmusicpage.com. All rights reserved.

Legal & DMCA: Matt's Music Page has been providing lyrics and tabs in a legal way, paying royalties each year to a few organizations. Then, all lyrics and tabs were removed from the site. Now, there's a new owner to the site, which purchased it August 26, 2014, and he is in negotiation to obtain licensing from BMI at the moment. If you have a specific DMCA request -- please do not hesitate to contact me via the contact button on top. I will do my very best to keep this site fully legal.

Get our toolbar!

 

1939 LYRIC THEATRE New York PHOTO
$5.83
1939 LYRIC THEATRE New York PHOTO picture


Star Spangled Banner or Marines Hymn lyrics signed by WWII Charles W. Lindberg
$10.0
Star Spangled Banner or Marines Hymn lyrics signed by WWII Charles W. Lindberg picture


OLD LARGE HISTORIC PHOTO OF THE LYRIC THEATRE, SYDNEY c1930s, WAR BONDS BOOTH
$7.42
OLD LARGE HISTORIC PHOTO OF THE LYRIC THEATRE, SYDNEY c1930s, WAR BONDS BOOTH picture


SONG OF REVOLUTION CARD SET WITH 13 MOST FAVORED COMMUNIST SONGS LYRICS + NOTES
$24.99
SONG OF REVOLUTION CARD SET WITH 13 MOST FAVORED COMMUNIST SONGS LYRICS + NOTES picture


OLD LARGE HISTORIC PHOTO OF THE LYRIC THEATRE, SYDNEY c1930s, WAR LOANS BOOTH
$7.42
OLD LARGE HISTORIC PHOTO OF THE LYRIC THEATRE, SYDNEY c1930s, WAR LOANS BOOTH picture