Your One-Stop Source For
Music Lyrics
Bass and Guitar Tabs
and More...
>Music Lyrics Bass and Guitar Tabs

 

The Foo Fighters Bass Tabs Are Below

Learn To Read Tab
Chords Handbook
Corrections & Additions
Get Official Tab
Foo Fighters tabs @ 911Tabs

“Word Forward” by: Foo Fighters (Bass tabs)

Written by: bass_masta_1992

Tuning: EADG

 

(Email me lawalteral29@yahoo.com with any questions or comments... should be 100% accurate)

 

Intro: No bass

 

Chorus I: (You said I’ve wasted)

G:-------------0~----------------------------------------------------------|

D:----------0~----0~----1~-1-----------------------------------------------|

A:--------3~---------------------------------------------------------------|

E:0~--2~------------0~----------------------------------------------------|

 

Verse I: (They’re just fucking words)

G:-------------------------------------------------------------------------|

D:-----------------------------------------3-3-3-3-3-----------------------|

A:-----------2-2-2-2-2-----------3-3-3-3-3-----------0-0-0-0-0---3-3-3-3-3-|

E:3-3-3-3-3-----------0-0-0-0-0-------------------------------------------|

 

Chorus II: (You said I’ve wasted)

G:----------------------------------0-0-0-0--------------------------------|

D:--------------------------0-0-0-0---------0-0-0-0----1-1-1-1-------------|

A:------------------3-3-3-3------------------------------------------------|

E:0-0-0-0--2-2-2-2---------------------------------------------0-0-0-0----|

 

Bridge: (I meant every word)

G:-------------------------------------------------------------------------|

D:2-2-2-2-2-2-0-0-0-0-0-0-----------------------------------0-0-0-0-0-0----|

A:-----------------------3-3-3-3-3-3-2-2-2-2-2-2-3-3-3-3-3-3---------------|

E:-----------------------------------------------------------------------3-|

 

(But its only words)

G:-------------------------------------------------------------------------|

D:1-1-1-1-1-1-1-1-1-1-----------------------1-1-1-1-1-1-1-1-1-1------------|

A:--------------------2-------------------2---------------------2----------|

E:----------------------3-3-3-3-3-3-3-3-3-------------------------3-3-3-3-3|

 

(They’re just fucking words)

G:----------------------------------------------0-0-0-0-0-0--2-2-2-2-2-2-2-|

D:-2--2--2--2--2--2--2--1-1-1-1-1-1--3-3-3-3-3-3---------------------------|

A:-------------------------------------------------------------------------|

E:0--0--0--0--0--0--0------------------------------------------------------|

 

 

(Word for word for word)

G:-------------------------------|

D:-2~---0~-----------------0~----|

A:----------3~---2~---3~---------|

E:-----------------------------3~|

 

G:-------------------------------------------------------------------------|

D:2-2-2-2-2-2-0-0-0-0-0-0-----------------------------------0-0-0-0-0-0----|

A:-----------------------3-3-3-3-3-3-2-2-2-2-2-2-3-3-3-3-3-3---------------|

E:-----------------------------------------------------------------------3-|

 

 

End:

G:-------------------------------------------------------------------------|

D:2-2-2-2-0-0-0-0-------------------------0-0-0-0-0-0----------------------|

A:----------------3-3-3-3-2-2-2-2-3-3-3-3----------------------------------|

E:----------------------------------------------------3-3-3-3-3-3-3-3--0~--|

Click here to return to my Foo Fighters Bass Tabs page

The Tablature is Copyright its respective owners.

Sign Up For My Newsletter
Subscribe | Unsubscribe

Site Map | Disclaimer | Privacy Policy | Media Kit | Submissions/Corrections

Website © 2000-2014 mattsmusicpage.com. All rights reserved.

Legal & DMCA: Matt's Music Page has been providing lyrics and tabs in a legal way, paying royalties each year to a few organizations. Then, all lyrics and tabs were removed from the site. Now, there's a new owner to the site, which purchased it August 26, 2014, and he is in negotiation to obtain licensing from BMI at the moment. If you have a specific DMCA request -- please do not hesitate to contact me via the contact button on top. I will do my very best to keep this site fully legal.

Get our toolbar!

 

VTG 32" TALL LARGE CENTURION PENDULUM BANJO 35 DAY WALL CLOCK RESTORATION/PARTS
$25.0
VTG 32


Vintage BANJO Miniature With Black Case, Salesman Sample, Only 7 " Long
$9.99
Vintage BANJO Miniature With Black Case, Salesman Sample, Only 7


Vintage Banjo Style Airguide Barometer Thermometer Humidty Faux Wood Plastic
$10.0
Vintage Banjo Style Airguide Barometer Thermometer Humidty Faux Wood Plastic picture


FROG BAND PLAYING BANJO JUG WASHBOARD Painted Resin FIGURINE 8.75 x 4.5 x 6.5
$13.99
 FROG BAND PLAYING BANJO JUG WASHBOARD Painted Resin FIGURINE 8.75 x 4.5 x 6.5 picture


Wm. L. Gilbert American Eagle Crested Banjo Clock 32 Inches
$9.99
Wm. L. Gilbert American Eagle Crested Banjo Clock 32 Inches picture