Your One-Stop Source For
Music Lyrics
Bass and Guitar Tabs
and More...
Music Lyrics Bass and Guitar Tabs

 

Tabs of Foo Fighters Songs

Learn To Read Tab
Chords Handbook
Corrections & Additions
Get Official Tab
Foo Fighters tabs @ 911Tabs

Foo Fighters - With Arms Wide Open (Creed Cover)

(Normal Tuning)

 

I wrote the easy chord version above

the chords.

 

 

Verse

C G Am

e||--3--0*--0*--||

b||--1--1---1---||

g||--0--0---2---||

d||--2--0---2---||

a||--3--2---0---||

e||-------------||

* = not all the time

 

 

Chorus

F C E D

e||-----3--0--2--||

b||-----1--3--3--||

g||--2--0--0--2--||

d||--3--2--2--0--||

a||--3--3--2-----||

e||--1-----0-----||

 

_____________________________________

http://tabs.foofighters.com

Matt Armstrong [matt@foofighters.com]

 

Return to my to my Foo Fighters tabs page

The Tablature is Copyright its respective owners.

Sign Up For My Newsletter
Subscribe | Unsubscribe

Site Map | Disclaimer | Privacy Policy | Media Kit | Submissions/Corrections

Website © 2000-2014 mattsmusicpage.com. All rights reserved.

Get our toolbar!