Your One-Stop Source For
Music Lyrics
Bass and Guitar Tabs
and More...
Music Lyrics Bass and Guitar Tabs

 

The Foo Fighters Bass Tabs Are Below

Learn To Read Tab
Chords Handbook
Corrections & Additions
Get Official Tab
Foo Fighters tabs @ 911Tabs

Foo Fighters - White Limo tabbed by FLX *

********************************************************************

 

 

I'm not sure if it's 100% right, but it sounds very original. Have fun! flx

 

 

Explanation:

~ means let it ring

/ means slide down (till anywhere, you'll hear when it sounds good :])

 

 

 

Intro:

g|------------------|

d|------------------|

a|--0-2-0-3-2-0-----|

e|--------------8/--|

 

 

Intro-Verse: Verse (3x): (before Chorus)

g|------------------|-----------------------------------------------|-----|

d|---------------3--|-------------------------------------------(3)-|-----|

a|---0-2-0-3-2-0----|-2(x19)-0-2-0-3-2-0-3---2(x19)-0-2-0-3-2-0-----|-(2)-|

e|------------------|-----------------------------------------------|-----|

 

 

 

Chorus Part1 (2x):

g|-------------------------------------------------------------|

d|-------------------------------------------------------------|

a|-2--2-2-2-2-2-2-5--5-5-5-5-5-5-------------------------------|

e|-------------------------------6--6-6-6-6-6-6-3--3-3-3-3-3-3-|

 

 

 

Chorus Part2:

g|---------------------------------------|

d|---------------------------------------|

a|-----5~/-------------------------------|

e|-7~/-----6--6-6-6-6-8-6-3--3-3-3-3-3-3-|

 

g|------------------------------------------|

d|------------------------------------------|

a|-----5~/--------------------0-2-0-3-2-0-2-|

e|-7~/-----5--5-5-5-5-7-5-0~----------------|

 

 

 

Verse (3x): (Before Chorus)

g|----------------------------------------------|-----|

d|-------------------3--------------------------|-----|

a|2(x19)-0-2-0-3-2-0-----2(x19)-0-2-0-3-2-0-(3)-|-(2)-|

e|----------------------------------------------|-----|

 

 

 

Chorus Part1 (2x):

g|-------------------------------------------------------------|

d|-------------------------------------------------------------|

a|-2--2-2-2-2-2-2-5--5-5-5-5-5-5-------------------------------|

e|-------------------------------6--6-6-6-6-6-6-3--3-3-3-3-3-3-|

 

 

 

Chorus Part2:

g|---------------------------------------|

d|---------------------------------------|

a|-----5~/-------------------------------|

e|-7~/-----6--6-6-6-6-8-6-3--3-3-3-3-3-3-|

 

g|------------------------------------------|

d|------------------------------------------|

a|-----5~/--------------------0-2-0-3-2-0-2-|

e|-7~/-----5--5-5-5-5-7-5-0~----------------|

 

 

 

Chorus Part3:

g|--------------------------------------------------------------------|

d|-9--9-9-9-9-9-9-7--7-7-7-7-7-7-8--8-8-8-8-8-8-----------------------|

a|----------------------------------------------10--10-10-10-10-10-10-|

e|--------------------------------------------------------------------|

 

 

g|--------------------------------------------------------------------------|

d|9--9-9-9-9-9-9-12--12-12-12-12-12-12--------------------------------------|

a|-------------------------------------12--12-12-12-12-12-12---0-2-0-3-2-0-3|

e|----------------------------------------------------------0---------------|

 

 

Verse (3x):

g|------------------------------------------|

d|----------------------------------------3-|

a|2(x19)-0-2-0-3-2-0-3---2(x19)-0-2-0-3-2---|

e|------------------------------------------|

 

 

 

Solo (4x): (3x play till here)

g|----------------------------------------------|----------------|

d|----------------------------------------------|----------------|

a|-0--0-0-0-0-0-0-------------------------------|--------------7-|

e|----------------0--0-0-0-0-0-0-7--7-7-7-7-7-7-|-7-7-7-7-7-10---|

 

 

|4th time play this|

g|------------------|

d|------------------|

a|-0-2-0-3-2-0-3----|

e|------------------|

 

 

 

Wait until scream

g|------------------|-----------------------------------------|

d|---------------3--|------------------------------3----------|

a|---0-2-0-3-2-0----|---------3-2(x18)-0-2-0-3-2-0----2(x19)--|

e|------------------|-----------------------------------------|

 

 

 

Outro:

g|-----------------------------------------------------------------|

d|-----------------------------------------------------------------|

a|-0-2-0-3-2-0-2--0-2-0-3-2-0-2--0-2-0-3-2-0-2--0-2-0-3-2-0~-------|

e|-----------------------------------------------------------------|

 

 

 

I hope you enjoy playing it :)

Click here to return to my Foo Fighters Bass Tabs page

The Tablature is Copyright its respective owners.

Sign Up For My Newsletter
Subscribe | Unsubscribe

Site Map | Disclaimer | Privacy Policy | Media Kit | Submissions/Corrections

Website © 2000-2014 mattsmusicpage.com. All rights reserved.

Legal & DMCA: Matt's Music Page has been providing lyrics and tabs in a legal way, paying royalties each year to a few organizations. Then, all lyrics and tabs were removed from the site. Now, there's a new owner to the site, which purchased it August 26, 2014, and he is in negotiation to obtain licensing from BMI at the moment. If you have a specific DMCA request -- please do not hesitate to contact me via the contact button on top. I will do my very best to keep this site fully legal.

Get our toolbar!