Your One-Stop Source For
Music Lyrics
Bass and Guitar Tabs
and More...
>Music Lyrics Bass and Guitar Tabs

 

The Foo Fighters Bass Tabs Are Below

Learn To Read Tab
Chords Handbook
Corrections & Additions
Get Official Tab
Foo Fighters tabs @ 911Tabs

Foo Fighters - What If I Do?

 

Album: 2005-In Your Honor

Instrument: Bass

Tuning: eBGDAE

 

 

 

Intro

 

G||-----------------------------------|

D||-----------------------------------|

A||--3-3-3-3-3-3-3-33-333-333-333-333-|

E||------------------3---3---3---3----|

 

 

Verse

 

G||----------------------------------|

D||----------------------------------|

A||-----------------3333333333333333-|

E||-1-1-1-1-1-1-1-11-----------------|

 

 

Chorus

 

G||------------------------------------|-----------------------------------|

D||------------------------------------|-----------------------------------|

A||--1111111111111111-0000000000000000-|-----------------------------------|

E||-3----------------------------------|-4444444444444444/8888888888888888-|

 

Solo

 

G||---------------------------|---------------------------|

D||---------------------------|---------------------------|

A||-3--3-3------3-3-3-3---3-3-|---------------------------|

E||-------3-3-3---------3-----|-3--3-3-3-1--1-1-1-1-1-1-1-|

Carolina.......

 

 

 

Click here to return to my Foo Fighters Bass Tabs page

The Tablature is Copyright its respective owners.

Sign Up For My Newsletter
Subscribe | Unsubscribe

Site Map | Disclaimer | Privacy Policy | Media Kit | Submissions/Corrections

Website © 2000-2014 mattsmusicpage.com. All rights reserved.

Legal & DMCA: Matt's Music Page has been providing lyrics and tabs in a legal way, paying royalties each year to a few organizations. Then, all lyrics and tabs were removed from the site. Now, there's a new owner to the site, which purchased it August 26, 2014, and he is in negotiation to obtain licensing from BMI at the moment. If you have a specific DMCA request -- please do not hesitate to contact me via the contact button on top. I will do my very best to keep this site fully legal.

Get our toolbar!

 

HUMMEL JOYFUL Girl with Banjo WEST GERMANY
$9.0
HUMMEL JOYFUL Girl with Banjo WEST GERMANY picture


Vtg MIJ Japan Ceramic Calendar Date Winged Fairy w Banjo Mandolin NOS in Box
$6.95
Vtg MIJ Japan Ceramic Calendar Date Winged Fairy w Banjo Mandolin NOS in Box picture


Black Americana Banjo Player
$5.99
Black Americana Banjo Player picture


Frog Banjo "Stop Yer Croaking" 1910 Postcard
$5.99
Frog Banjo


Frog Banjo "Write Soon Or I'll Drown My Sorrow in a Watery Grave" 1910 Postcard
$4.99
Frog Banjo