Your One-Stop Source For
Music Lyrics
Bass and Guitar Tabs
and More...
Music Lyrics Bass and Guitar Tabs

 

The Foo Fighters Guitar Tabs Are Below

Learn To Read Tab
Chords Handbook
Corrections & Additions
Get Official Tab
Foo Fighters tabs @ 911Tabs

Foo Fighters - Virginia Moon

 

Album: 2005 - In Your Honor

Instrument: Guitar

Tuning: eBGDAE

 

Tabbed By: Kev McNally

 

 

Verse

e||-------------------------------------------||

B||------------------------6------------------||

G||--5--5--5--3-----5-3------3----3--4--3--3--||

D||--6--5--4--3-----3----------3--2--2--2--2--||

A||--4--7--6--5--5------5---------4--4--4--x--||

E||----------------------------------------2--||

 

 

Chorus

e||--------||

B||--------||

G||--3--3--||

D||--4--2--|| switch between these two chords

A||--2--x--||

E||-----2--||

 

e||-------------------------------------------||

B||-------------------------------------------||

G||--------1----------0--------4--4--4--3--3--||

D||--------2----------2--2-----4--4--5--4--4--||

A||-----2-----2----2--------2--2--6--5--4--2--||

E||--0----------0-----------------------------||

"In the morning when we're through..."

 

(under this the electric rhythm guitar plays)

e||--7-------7-----------------6--11--10--9---6--||

B||--9-------8-----------------7--12--12--11--7--||

G||--9-------9-----------------8--11--12--10--8--||

D||----------------------------------------------||

A||----------------------------------------------||

E||----------------------------------------------||

 

 

Lead Break

e||-------------------------------------8--9--11--9--8---------------------------|

B||------------------------------------6----------------11--9--11b12b11-------9--|

G||------------5--5--1--3--5--5b6--5--6----------------------------------9s10----|

D||------3--6--------------------------------------------------------------------|

A||-3-4--------------------------------------------------------------------------|

E||------------------------------------------------------------------------------|

 

e|----------------------------------------------------------------2--||

B|-11--9--11--9--11b12--11--9--11b12--11-----------------------2-----||

G|----------------------------------------------------------3--------||

D|----------------------------------------------------3--4-----------||

A|----------------------------------------------1--4-----------------||

E|----------------------------------------1--2-----------------------||

 

 

Electric rhythm guitar plays this under the lead break

e||--8---8---8---6--6--7--2--||

B||--9---8---7---6--5--5--2--||

G||--10--9---8---7--6--6--3--||

D||--11--10--10-----------4--||

A||--------------------------||

E||--------------------------||

 

 

Electric rhythm guitar plays this under the subsequent chorus

e||--6--2--||

B||--7--2--||

G||--8--3--|| Switch between these two chords

D||--9--4--||

A||--------||

E||--------||

 

 

Acoustic rhythm guitar finishes with this chord:

e||--2--||

B||--2--||

G||--3--||

D||--4--||

A||--2--||

E||-----||

 

 

* Lyrics *

 

Dearest constellation

Heaven surroundin' you

Stay there soft and blue

Virginia moon

I wait for you tonight

 

Sweetest invitation

Breaking the day in two

Feelin' like I do

Virginia moon

I wait for you tonight

 

And now our shapes become

Shadows in your light

In the morning when we're through

And tomorrow rescues you

I will say

Goodnight

 

Secret fascination

Whisper a quiet tune

Hear me callin' you

Virginia moon

I wait for you tonight

 

And now our shapes become

Shadows in your light

In the morning when we're through

And tomorrow rescues you

I will say

Goodnight

 

Virginia moon

I wait for you tonight

 

And now our shapes become

Shadows in your light

In the morning when we're through

And tomorrow rescues you

I will say

Goodnight

 

I will say goodnight

I will say goodnight

 

 

Click here to return to my Foo Fighters Guitar Tabs page

The Tablature is Copyright its respective owners.

Sign Up For My Newsletter
Subscribe | Unsubscribe

Site Map | Disclaimer | Privacy Policy | Media Kit | Submissions/Corrections

Website © 2000-2014 mattsmusicpage.com. All rights reserved.

Legal & DMCA: Matt's Music Page has been providing lyrics and tabs in a legal way, paying royalties each year to a few organizations. Then, all lyrics and tabs were removed from the site. Now, there's a new owner to the site, which purchased it August 26, 2014, and he is in negotiation to obtain licensing from BMI at the moment. If you have a specific DMCA request -- please do not hesitate to contact me via the contact button on top. I will do my very best to keep this site fully legal.

Get our toolbar!