Your One-Stop Source For
Music Lyrics
Bass and Guitar Tabs
and More...
>Music Lyrics Bass and Guitar Tabs

 

The Foo Fighters Bass Tabs Are Below

Learn To Read Tab
Chords Handbook
Corrections & Additions
Get Official Tab
Foo Fighters tabs @ 911Tabs

Foo Fighters - Virginia Moon

 

Album: 2005 - In Your Honor

Instrument: Bass

Tuning: GDAE

 

Tabbed By: natefoo (nathan.dudar@hotmail.com)

 

 

Intro

G|------------------------------|

D|------------------------------|

A|--4-444-444-4----4-444-444-4--|

E|------------------------------|

 

 

Verse

G|---------------------------------------------------------------------------|

D|---------------------------------------------------------------------------|

A|--4-444-444-4-7-777-777-7-6-666-666-6-5-555-555-5-4-444-444-4--------------|

E|--------------------------------------------------------------2-222-222-2--|

 

 

Chorus

G|------------------------------|

D|------------------------------|

A|--2-222-222-22----------------|

E|----------------2-222-222-22--|

 

 

Verse

G|---------------------------------------------------------------------------|

D|---------------------------------------------------------------------------|

A|--4-444-444-4-7-777-777-7-6-666-666-6-5-555-555-5-4-444-444-4--------------|

E|--------------------------------------------------------------2-222-222-2--|

 

 

Chorus

G|----------------------------------------------------------------------------|

D|----------------------------------------------------------------------------|

A|--2-222-222-22------------------2-222-222-22----------------------2--6-245--|

E|----------------2-222-222-22-----------------2-222-222-22---0---0-----------|

 

G|--------------------------|

D|--------------------------|

A|--5555-4----2-222-222-22--|

E|--------------------------|

 

 

Verse

G|---------------------------------------------------------------------------|

D|---------------------------------------------------------------------------|

A|--4-444-444-4-7-777-777-7-6-666-666-6-5-555-555-5-4-444-444-4--------------|

E|--------------------------------------------------------------2-222-222-2--|

 

 

Chorus

G|----------------------------------------------------------------------------|

D|----------------------------------------------------------------------------|

A|--2-222-222-22------------------2-222-222-22----------------------2--6-245--|

E|----------------2-222-222-22-----------------2-222-222-22---0---0-----------|

 

G|--------------------------|

D|--------------------------|

A|--5555-4----2-222-222-22--|

E|--------------------------|

 

 

Verse/Solo

G|---------------------------------------------------------------------------|

D|---------------------------------------------------------------------------|

A|--4-444-444-4-7-777-777-7-6-666-666-6-5-555-555-5-4-444-444-4--------------|

E|--------------------------------------------------------------2-222-222-2--|

 

 

Chorus

G|----------------------------------------------------------------------------|

D|----------------------------------------------------------------------------|

A|--2-222-222-22------------------2-222-222-22----------------------2--6-245--|

E|----------------2-222-222-22-----------------2-222-222-22---0---0-----------|

 

G|---------------------------------------------------------------------------|

D|---------------------------------------------------------------------------|

A|--5555-4----2-222-222-22-6-2455555-4-2-222-222-22-6-24555554-2-222-222-22--|

E|---------------------------------------------------------------------------|

 

G|----------------------------------------------|

D|----------------------------------------------|

A|--2-222-222-22--2-222-222-22-2-222-222-22--2--|

E|----------------------------------------------|

 

Click here to return to my Foo Fighters Bass Tabs page

The Tablature is Copyright its respective owners.

Sign Up For My Newsletter
Subscribe | Unsubscribe

Site Map | Disclaimer | Privacy Policy | Media Kit | Submissions/Corrections

Website © 2000-2014 mattsmusicpage.com. All rights reserved.

Legal & DMCA: Matt's Music Page has been providing lyrics and tabs in a legal way, paying royalties each year to a few organizations. Then, all lyrics and tabs were removed from the site. Now, there's a new owner to the site, which purchased it August 26, 2014, and he is in negotiation to obtain licensing from BMI at the moment. If you have a specific DMCA request -- please do not hesitate to contact me via the contact button on top. I will do my very best to keep this site fully legal.

Get our toolbar!

 

Precious Moments - 639923 -MIB- Lead Crystal Ornament -I'LL PLAY MY DRUM FOR HIM
$19.99
Precious Moments - 639923 -MIB- Lead Crystal Ornament -I'LL PLAY MY DRUM FOR HIM picture


Precious Moments - E2358 - Porcelain Bell - I'LL PLAY MY DRUM FOR HIM - 1982
$19.99
Precious Moments - E2358 - Porcelain Bell - I'LL PLAY MY DRUM FOR HIM - 1982 picture


Vintage Valentine with Native Beating a Drum - U.S.A.
$5.99
Vintage Valentine with Native Beating a Drum - U.S.A. picture


Wheaton Vintage Blue McGivers' American Army Bitters Drum Bottle 7.5"H 10.5"circ
$2.99
Wheaton Vintage Blue McGivers' American Army Bitters Drum Bottle 7.5


Black Premier 16" x 12" Tom Edmonton Alberta Transit Pipes Drums Made in England
$65.0
Black Premier 16