Your One-Stop Source For
Music Lyrics
Bass and Guitar Tabs
and More...
Music Lyrics Bass and Guitar Tabs

 

Tabs of Foo Fighters Songs

Learn To Read Tab
Chords Handbook
Corrections & Additions
Get Official Tab
Foo Fighters tabs @ 911Tabs

Foo Fighters - The One

(Normal Tuning)

 

Christopher Ruf [cr_legend@yahoo.com]

Matt Armstrong [matt@foofighters.com]

 

*Chords*

A - 577xxx

G#- 476xxx

G - 355xxx

F#- 244xxx

F - 133xxx

E - 022xxx

C - x355xx

D1- x577xx

D2- 5577xx

Eb- 6688xx

Bb- x133xx

 

/=slide, h=hammer on, p=pull off, b=bend

Strumming is not indicated as it is fast and would

require lots of tedious tabbing.

 

Riff A

e|---------|

B|---------|

G|-5/7-5/8-|

D|-x-x-x-x-|

A|-3/5-3/6-|

E|---------|

 

Riff B

e|----------|

B|----------|

G|-9/12-5/7-|

D|-x--x-x-x-|

A|-7/10-3/5-|

E|----------|

 

Riff C

e|-------|

B|-10----|

G|-12b14-|

D|-------|

A|-------|

E|-------|

 

Intro

G/A G/A G/A Riff A (x4)

On 4th use Riff B

 

Verse 1

Palm-muted

A G# G F# F E D2

A G# G F# F E D2 Eb

 

Chorus

G/A C/D1 Bb/C F G

 

Intro (x2)

Riff A 1st time

Riff B 2nd time

 

Verse2

A G# G F# F E D2 Eb

A G# G F# F E D2 D2 Eb

 

Chorus x2

 

Bridge

D2 Eb F G D2 F G

Then

e|-----------------------------------|

B|-----------------------------------|

G|-7/9-7/9-7/9--7-5------------------|

D|-7/9-7/9-7/9--7-5---5/7-5/7-5/7--7-|

A|-5/7-5/7-5/7--5-3---5/7-5/7-5/7--7-|

E|-0-0-0-0-0-0-----------------------|

 

Chorus x3

2nd Guitar in end of 2nd time on the F

Then plays

Pick Slide then...

e|----------------------------------------------------|

B|------------15-13h15p13-----------------------------|

G|-RiffC(x14)-------------14---RiffC(x14)-14/17-10/12-|

D|----------------------------------------------------|

A|----------------------------------------------------|

E|----------------------------------------------------|

 

e|-17-15----15------------------------------|

B|-------17----17-16-17-16-15-16-15---------|

G|----------------------------------17-14---|

D|------------------------------------------|

A|------------------------------------------|

E|------------------------------------------|

________________________________________________________

Brent Stranathan [Tnerb248@aol.com]

 

 

Intro:

A5

e||-------||

B||-------||

G||-------||

D||----7--||

A||----7--||

E||--4/5--||

 

Riff 1/Riff 2:

e||--------|--------|--------||

B||--------|--------|--8b----||

G||--7b/8b-|--7b/8b-|-----7b-||

D||--------|--------|--------||

A||--------|--------|--------||

E||--------|--------|--------||

 

Verse:

PM: A5 Ab5 G5 F#5 F5 E5 D5

e||--------------------------------------||

B||--------------------------------------||

G||--------------------------------7777--||

D||--7777-6666-5555-4444-3333-2222-7777--||

A||--7777-6666-5555-4444-3333-2222-5555--||

E||--5555-4444-3333-2222-1111-0000-------||

 

Chorus:

A5 D5/A C5/G F5 G5

e||--------------------------||

B||--------------------------||

G||-------/7----/5-----------||

D||-/7----/7----/5----3---5--||

A||-/7----/5----/3----3---5--||

E||-/5----/5----/3----1---3--||

 

Bridge:

D5/A F5/C G5/D D5/A F5/C G5/D A5/E

e||---------------------------------------||

B||---------------------------------------||

G||--7-/-10----12----7----10----12----14--||

D||--7-/ 10----12----7----10----12----14--||

A||--5-/-8-----10----5----8-----10----12--||

E||--5-/-8-----10----5----8-----10----12--||

 

Road Map:

Intro + Riff One 3x

riff 2 1x

Verse 2x

Chorus 2x

Intro + riff 1 1x

Intro + riff 2 1x

Verse 2x

Chorus 2x

Bridge

Intro 1x

Chorus 8x (last two with guitar solo i can't hear to

well on the realaudio version..haha, sorry guys)

 

___________________________

http://tabs.foofighters.com

 

Return to my to my Foo Fighters tabs page

The Tablature is Copyright its respective owners.

Sign Up For My Newsletter
Subscribe | Unsubscribe

Site Map | Disclaimer | Privacy Policy | Media Kit | Submissions/Corrections

Website © 2000-2014 mattsmusicpage.com. All rights reserved.

Legal & DMCA: Matt's Music Page has been providing lyrics and tabs in a legal way, paying royalties each year to a few organizations. Then, all lyrics and tabs were removed from the site. Now, there's a new owner to the site, which purchased it August 26, 2014, and he is in negotiation to obtain licensing from BMI at the moment. If you have a specific DMCA request -- please do not hesitate to contact me via the contact button on top. I will do my very best to keep this site fully legal.

Get our toolbar!