Your One-Stop Source For
Music Lyrics
Bass and Guitar Tabs
and More...
Music Lyrics Bass and Guitar Tabs

 

The Foo Fighters Guitar Tabs Are Below

Learn To Read Tab
Chords Handbook
Corrections & Additions
Get Official Tab
Foo Fighters tabs @ 911Tabs

Foo Fighters - The Sign

 

Album: 2005 - In Your Honor (Bonus)

Instrument: Guitar

Tuning: eBGDAD

 

Tabbed By: Monkey Fighter / Gabe D

 

 

Intro

Gtr. Lead

e||--0--0--0--0--0--0--0--0--0--0--0--0--0--0--0--0--0--0--0--||

B||--14-14-14-15-15-15-15-14-14-14-14-14-12-12-12-12-12-12-12-||

G||-----------------------------------------------------------||

D||-----------------------------------------------------------||

A||-----------------------------------------------------------||

D||-----------------------------------------------------------||

 

Gtr. Rhythm

e||-------|-----------------------------------------||

B||-------|-----------------------------------------||

G||--7----|--7-7-7-7-7-7-7-7-7-7-7-7-7-7-7-7-7-7-7--||

D||--7----|--7-7-7-7-7-7-7-7-7-7-7-7-7-7-7-7-7-7-7--||

A||--5----|--5-5-5-5-5-5-5-5-5-5-5-5-5-5-5-5-5-5-5--||

D||--0----|--0-0-0-0-0-0-0-0-0-0-0-0-0-0-0-0-0-0-0--||

 

^ v ^ v ^ v ^ v ^ v ^ v ^ v ^ v ^ v ^ v ^ v ^

e||-------------------------------------------------||

B||-------------------------------------------------||

G||--7-x-7-x-7-x-7-x-7-x-7-x-7-x-7-x-7-x-7-x-7-x-7--||

D||--7-x-7-x-7-x-7-x-7-x-7-x-7-x-7-x-7-x-7-x-7-x-7--||

A||--5-x-5-x-5-x-5-x-5-x-5-x-5-x-5-x-5-x-5-x-5-x-5--||

D||--0-x-0-x-0-x-0-x-0-x-0-x-0-x-0-x-0-x-0-x-0-x-0--||

 

 

Verse

Gtr. Lead

e||--0--0--0--0--0--0--0--0--0--0--0--0--0--0--0--0--0--0--0--||

B||--14-14-14-15-15-15-15-14-14-14-14-14-12-12-12-12-12-12-12-||

G||-----------------------------------------------------------||

D||-----------------------------------------------------------||

A||-----------------------------------------------------------||

D||-----------------------------------------------------------||

 

Gtr. Rhythm x2

e||------------------------------|-----------------------------||

B||------------------------------|-----------------------------||

G||--7-7-7-7-7-7-7-7-7-7-7-7-7-7-|-7-7-7-7-7-7-7-7-7-7-7-7-7---||

D||--7-7-7-7-7-7-7-7-7-7-7-7-7-7-|-7-7-7-7-7-7-7-7-7-7-7-7-7---||

A||--4-4-4-5-5-5-5-5-5-5-5-5-5-5-|-5-5-5-5-5-5-5-5-5-5-5-5-5---||

D||--------0-0-0-0-0-0-0-0-0-0-0-|-5-5-5-5-5-5-5-5-5-5-5-5-5---||

 

 

Pre-Chorus

Gtr. Rhythm

e||-----------------------------------------------------------------||

B||-----------------------------------------------------------------||

G||--4-4-4-4-4-4-4-4-4-2-2-2-2-2-2-2-2------------------------------||

D||--4-4-4-4-4-4-4-4-4-2-2-2-2-2-2-2-2-5-5-5-5-5-5-5-5-2-2-2-2-2-2--||

A||--2-2-2-2-2-2-2-2-2-0-0-0-0-0-0-0-0-5-5-5-5-5-5-5-5-2-2-2-2-2-2--||

D||------------------------------------5-5-5-5-5-5-5-5-2-2-2-2-2-2--||

 

Gtr. Lead

e||--------------------------------------------------------------------------------||

B||--------------------------------------------------------------------------------||

G||--11-11-11-11-11-11-11-11-11-9-9-9-9-9-9-9-9-7-7-7-7-7-7-7-7-13-13-13-13-13-13--||

D||--x--x--x--x--x--x--x--x--x--x-x-x-x-x-x-x-x-x-x-x-x-x-x-x-x-x--x--x--x--x--x---||

A||--9--9--9--9--9--9--9--9--9--7-7-7-7-7-7-7-7-5-5-5-5-5-5-5-5-11-11-11-11-11-11--||

D||--------------------------------------------------------------------------------||

 

Gtr. Rhythm

e||-----------------------------------------------------------------||

B||-----------------------------------------------------------------||

G||--4-4-4-4-4-4-4-4-4-2-2-2-2-2-2-2-2------------------------------||

D||--4-4-4-4-4-4-4-4-4-2-2-2-2-2-2-2-2-5-5-5-5-5-5-5-5-2-2-2-2-2-2--||

A||--2-2-2-2-2-2-2-2-2-0-0-0-0-0-0-0-0-5-5-5-5-5-5-5-5-2-2-2-2-2-2--||

D||------------------------------------5-5-5-5-5-5-5-5-2-2-2-2-2-2--||

 

Gtr. Lead

e||-----------------------------------------------------------------------------||

B||-----------------------------------------------------------------------------||

G||--11-11-11-11-11-11-11-11-11-9-9-9-9-9-9-9-9-7-7-7-7-7-7-7-7-7-7-7-7-7-7-7-7-||

D||--x--x--x--x--x--x--x--x--x--x-x-x-x-x-x-x-x-x-x-x-x-x-x-x-x-x-x-x-x-x-x-x-x-||

A||--9--9--9--9--9--9--9--9--9--7-7-7-7-7-7-7-7-5-5-5-5-5-5-5-5-5-5-5-5-5-5-5-5-||

D||-----------------------------------------------------------------------------||

 

 

Chorus

Gtr. Rhythm

e||-----------------------------------||

B||-----------------------------------||

G||--7-7-7-7-7-7-7-7-7-7-7-7-7-7-7-7--|| (2 times)

D||--7-7-7-7-7-7-7-7-7-7-7-7-7-7-7-7--||

A||--4/5-5-5-5-5-5-5-5-5-5-5-5-5-5-5--||

D||----0-0-0-0-0-0-0-0-0-0-0-0-0-0-0--||

 

e||---------------------------------------------------||

B||---------------------------------------------------||

G||--7-7-7-7-7-7-7-7----------------------------------||

D||--7-7-7-7-7-7-7-7-2-2-2-2-2-2-2-2-5-5-5-5-5-5-5-5--||

A||--5-5-5-5-5-5-5-5-2-2-2-2-2-2-2-2-5-5-5-5-5-5-5-5--||

D||--5-5-5-5-5-5-5-5-2-2-2-2-2-2-2-2-5-5-5-5-5-5-5-5--||

 

Gtr. Lead

e||--0--0--0--0--0--0--0--0--0--0--0--0--0--0--0--0--0--0--0--||

B||--14-14-14-15-15-15-15-14-14-14-14-14-12-12-12-12-12-12-12-||

G||-----------------------------------------------------------||

D||-----------------------------------------------------------||

A||-----------------------------------------------------------||

D||-----------------------------------------------------------||

 

 

Outro

Both Guitars

^ v ^ v ^ v ^ v ^ v ^ v ^ v ^ v ^ v ^ v ^ v ^

e||-------------------------------------------------||

B||-------------------------------------------------||

G||--7-x-7-x-7-x-7-x-7-x-7-x-7-x-7-x-7-x-7-x-7-x-7--||

D||--7-x-7-x-7-x-7-x-7-x-7-x-7-x-7-x-7-x-7-x-7-x-7--||

A||--5-x-5-x-5-x-5-x-5-x-5-x-5-x-5-x-5-x-5-x-5-x-5--||

E||--0-x-0-x-0-x-0-x-0-x-0-x-0-x-0-x-0-x-0-x-0-x-0--||

 

 

 

*Lyrics*

 

I got superstition, ruling my decision

You are my religion, havn't got a plan

So just gimme the sign and I'll follow you

And every angel guiding you

You are my religion, havn't got a plan

 

I don't wanna wait to save your life

Think I know a way to make things right

 

Just give me the sign and I'll come for you

Give me the sign and I'll be your rescue, maybe

I'll run your way, when I hear you calling me

Give me the sign and I'll come for you

Give me the sign and I'll be your rescue, maybe

I'll run your way, when I hear you calling out, for me

 

Walking under ladders, nothing really matters

There could be disaster, I don't really care

So just gimme the sign and I'll follow you

And every angel guiding you

There could be disaster, I don't really care

 

I don't wanna wait to save your life

Think I know a way to make things right

 

Just give me the sign and I'll come for you

Give me the sign and I'll be your rescue, maybe

I'll run your way, when I hear you calling me

Give me the sign and I'll come for you

Give me the sign and I'll be your rescue, maybe

I'll run your way, when I hear you calling out

 

For me, for me

 

I don't wanna wait to save your life

Think I know a way to make things right

 

Just give me the sign, give me the sign

give me the sign, just give me the sign

 

Just give me the sign and I'll come for you

Give me the sign and I'll be your rescue, maybe

I'll run your way, when I hear you calling me

give me the sign and I'll come for you

Give me the sign and I'll be your rescue, maybe

I'll run your way, when I hear you calling out, for me

 

Give me the sign, give me the sign

Give me the sign, give me the sign

 

 

Click here to return to my Foo Fighters Guitar Tabs page

The Tablature is Copyright its respective owners.

Sign Up For My Newsletter
Subscribe | Unsubscribe

Site Map | Disclaimer | Privacy Policy | Media Kit | Submissions/Corrections

Website © 2000-2014 mattsmusicpage.com. All rights reserved.

Legal & DMCA: Matt's Music Page has been providing lyrics and tabs in a legal way, paying royalties each year to a few organizations. Then, all lyrics and tabs were removed from the site. Now, there's a new owner to the site, which purchased it August 26, 2014, and he is in negotiation to obtain licensing from BMI at the moment. If you have a specific DMCA request -- please do not hesitate to contact me via the contact button on top. I will do my very best to keep this site fully legal.

Get our toolbar!

 

Starbucks You Are Here Coffee Mug/Cup KENTUCKY - Horses, Banjo, Blue, White
$19.99
Starbucks You Are Here Coffee Mug/Cup KENTUCKY - Horses, Banjo, Blue, White picture


KNOWLES ROCKWELL HERITAGE "THE BANJO PLAYER" FIRST EDITION 1989 PLATE COA
$5.99
KNOWLES ROCKWELL HERITAGE


Vintage Postcard 1981 Disney World Banjo Kings Main Street USA 1981 Postmark
$4.99
 Vintage Postcard 1981 Disney World Banjo Kings Main Street USA 1981 Postmark picture


Banjo Barometer With Thermometer Hygrometer 490mm
$84.76
Banjo Barometer With Thermometer Hygrometer 490mm picture


ANTIQUE JAPANESE NIPPON FIGURINE SET OF 3 WOMEN GEISHA PLAYING DRUM BANJO FAN
$24.0
ANTIQUE JAPANESE NIPPON FIGURINE SET OF 3 WOMEN GEISHA PLAYING DRUM BANJO FAN picture