Your One-Stop Source For
Music Lyrics
Bass and Guitar Tabs
and More...
>Music Lyrics Bass and Guitar Tabs

 

The Foo Fighters Bass Tabs Are Below

Learn To Read Tab
Chords Handbook
Corrections & Additions
Get Official Tab
Foo Fighters tabs @ 911Tabs

Foo Fighters - The Deepest Blues Are Black

 

Album: 2005 - In Your Honor

Instrument: Bass

Tuning: Standard

Tabbed By: By NateFoo

 

Intro - No Bass

 

 

Pre-Verse

G|-----------------------|

D|-----------------------|

A|-----------------------|

E|--8878-8878-8878-8878--|

 

 

Verse

G|------------------------------------------|

D|------10-----10----------13-----------13--| (x2)

A|--888----888----11-11-11----11-11-11------|

E|------------------------------------------|

 

G|----------------------------------------------------------------|

D|-----------15----------15-----10----10----------13----------13--|

A|--13-13-13----13-13-13----888----88----11-11-11----11-11-11-----|

E|----------------------------------------------------------------|

 

G|---------------------------------------------------|

D|---------------------------------------------------|

A|--87878-87878-87878-87878-87878-87878-87878-87878--|

E|---------------------------------------------------|

 

 

Chorus

G|-------------------------------------|

D|-------------------------------------| (x2)

A|--------------------1111111-0000000--|

E|--1111111111-000000------------------|

 

G|----------------------------------------------|

D|----------------------------------------------|

A|----------------------------------------------|

E|--3333333333333333--666666666666666666666666--|

 

 

Bridge

G|------------------------------------------------------------------|

D|------------------------------------------------------------------|

A|--88888888888--11-11-11-11-11-11-11-11-66666666666----------------|

E|---------------------------------------------------6666666666666--|

fret 11

G|-------------------|

D|-------------------|

A|--444444444444444--|

E|-------------------|

 

 

End of last Chorus

G|------------------------------|

D|------------------------------|

A|------------------8-10-12-13--|

E|--3333333----6----------------|

 

 

Outro

G|-----------------------|

D|-----------------------|

A|-----------------------|

E|--1101-1101-1101-1101--|

 

 

Click here to return to my Foo Fighters Bass Tabs page

The Tablature is Copyright its respective owners.

Sign Up For My Newsletter
Subscribe | Unsubscribe

Site Map | Disclaimer | Privacy Policy | Media Kit | Submissions/Corrections

Website © 2000-2014 mattsmusicpage.com. All rights reserved.

Legal & DMCA: Matt's Music Page has been providing lyrics and tabs in a legal way, paying royalties each year to a few organizations. Then, all lyrics and tabs were removed from the site. Now, there's a new owner to the site, which purchased it August 26, 2014, and he is in negotiation to obtain licensing from BMI at the moment. If you have a specific DMCA request -- please do not hesitate to contact me via the contact button on top. I will do my very best to keep this site fully legal.

Get our toolbar!

 

Vintage, Original, 1930 - Hawaiian Guitar Advertisement
$6.0
Vintage, Original, 1930 - Hawaiian Guitar Advertisement  picture


1958 Gibson Modernistic Series 12x20 Patent Artwork Art Gifts For Guitar Players
$17.0
1958 Gibson Modernistic Series 12x20 Patent Artwork Art Gifts For Guitar Players picture


Hard Rock Cafe Membership – 11th Year Guitar & Logo 2-pin Set 58526 & 58527
$14.99
Hard Rock Cafe Membership – 11th Year Guitar & Logo 2-pin Set 58526 & 58527  picture


Handmade Lovely Clown With Guitar Paper Mache Vintage Colorful Figurine 1970's
$19.99
Handmade Lovely Clown With Guitar Paper Mache Vintage Colorful Figurine 1970's picture


1954 Gibson J185 guitar photo vintage print ad
$9.99
1954 Gibson J185 guitar photo vintage print ad picture