Your One-Stop Source For
Music Lyrics
Bass and Guitar Tabs
and More...
Music Lyrics Bass and Guitar Tabs

 

The Foo Fighters Bass Tabs Are Below

Learn To Read Tab
Chords Handbook
Corrections & Additions
Get Official Tab
Foo Fighters tabs @ 911Tabs

Summer's End

 

 

Foo Fighetrs

Nate Mendel - Bass

 

 

 

G||-------|-------|-------|-------|-------|

D||-------|-------|-------|-------|-------|

A||-------|-------|-------|-------|-------|

E||-------|-------|-------|-------|-------|

 

 

Q H. W

--------------------|-------------------|

--------------------|-------------------|

-------5------------|--L----------------|

--------------------|-------------------|

 

 

W W

-------------------|-------------------|

-------------------|-------------------|

--L----------------|--L----------------|

-------------------|-------------------|

 

 

E E E E E E E E

--------------------------|

--------------------------|

--5-----5--L--L--L--L--0--|

--------------------------|

 

 

E E E E E E E E

--------------------------|

--------------------------|

--5-----5--L--L--0--8--L--|

--------------------------|

 

 

E E E E E E E E

--------------------------|

--------------------------|

--5-----5--L--L--0--8--L--|

--------------------------|

 

 

E E E E E E E E

--------------------------|

--------------------------|

--5-----5--L--L--L--L--0--|

--------------------------|

 

 

E E E E E E E E

--------------------------|

--------------------------|

--5-----5--L--L--0--5--0--|

--------------------------|

 

 

E E E E E E E E

--------------------------|

--------------------------|

--3-----3--L--L--0--3--L--|

--------------------------|

 

 

E E E E E E E E

--------------------------|

--------------------------|

--0-----------------------|

-----3--3--L--3--3--L--3--|

 

 

E E E E E E E E

--------------------------|

--------------------------|

--------------3--5--3-----|

--L--3--3--5-----------3--|

 

 

Q H. W

--------------------|-------------------|

--------------------|-------------------|

--5----5------------|--L----------------|

--------------------|-------------------|

 

 

W W

-------------------|-------------------|

-------------------|-------------------|

--L----------------|--L----------------|

-------------------|-------------------|

 

 

E E E E E E E E

--------------------------|

--------------------------|

--5-----5--L--L--L--L--0--|

--------------------------|

 

 

E E E E E E E E

--------------------------|

--------------------------|

--5-----5--L--L--0--8--L--|

--------------------------|

 

 

E E E E E E E E

--------------------------|

--------------------------|

--5-----5--L--L--0--8--L--|

--------------------------|

 

 

E E E E E E E E

--------------------------|

--------------------------|

--5-----5--L--L--L--L--0--|

--------------------------|

 

 

E E E E E E E E

--------------------------|

--------------------------|

--5-----5--L--L--0--5--0--|

--------------------------|

 

 

E E E E E E E E

--------------------------|

--------------------------|

--3-----3--L--L--0--3--L--|

--------------------------|

 

 

E E E E E E E E

--------------------------|

--------------------------|

--0-----------------------|

-----3--3--L--3--3--L--3--|

 

 

E E E E E E E E

--------------------------|

--------------------------|

--------------3--5--3-----|

--L--3--3--5-----------3--|

 

 

Q H.

--------------------|

--------------------|

--5----5------------|

--------------------|

 

 

E E E E E E E E

--------------------------|

--------------------------|

--L-----------3--5--3-----|

-----3--3--5-----------3--|

 

 

Q H.

--------------------|

--------------------|

--5----5------------|

--------------------|

 

 

E E E E E E E E

--------------------------|

--------------------------|

--L-----------3--5--3-----|

-----3--3--5-----------3--|

 

 

E E E E E E E E

--------------------------|

--------------------------|

--5--L--5--L--5--5--5--L--|

--------------------------|

 

 

E E E E E E E E

--------------------------|

--------------------------|

--------------------------|

-----5--5--L--5--5--5--5--|

 

 

E E E E E E E E

--------------------------|

--------------------------|

--3--L--3--L--3--3--3--3--|

--------------------------|

 

 

E E E E E E E E

--------------------------|

--------------5--L--------|

--L-----------------------|

-----3--3--3--------3--L--|

 

 

E E E E E E E E

--------------------------|

--------------------------|

--5--L--5--L--5--5--5--L--|

--------------------------|

 

 

E E E E E E E E

--------------------------|

--------------------------|

--------------------------|

-----5--5--L--5--5--5--5--|

 

 

E E E E E E E E

--------------------------|

--------------------------|

--3--L--3--L--3--3--3--3--|

--------------------------|

 

 

E E E E E E E E

--------------------------|

--------------------------|

--3-----------3--5--3-----|

-----3--3--5-----------5--|

 

 

E E E E E E E E

--------------------------|

--------------------------|

--5--L--5--L--5--5--5--L--|

--------------------------|

 

 

E E E E E E E E

--------------------------|

--------------------------|

--------------------------|

-----5--5--L--5--5--5--5--|

 

 

E E E E E E E E

--------------------------|

--------------------------|

--3--L--3--L--3--3--3--3--|

--------------------------|

 

 

E E E E E E E E

--------------------------|

--------------5--L--------|

--L-----------------------|

-----3--3--3--------3--L--|

 

 

E E E E E E E E

--------------------------|

--------------------------|

--5--L--5--L--5--5--5--L--|

--------------------------|

 

 

E E E E E E E E

--------------------------|

--------------------------|

--------------------------|

-----5--5--L--5--5--5--5--|

 

 

E E E E E E E E

--------------------------|

--------------------------|

--3--L--3--L--3--3--3--3--|

--------------------------|

 

 

E E E E E E E E

--------------------------|

--------------------------|

--------------3--5--3-----|

--L--3--3--5-----------3--|

 

 

Q H. W

--------------------|-------------------|

--------------------|-------------------|

--5----5------------|--L----------------|

--------------------|-------------------|

 

 

W W

-------------------|-------------------|

-------------------|-------------------|

--L----------------|--L----------------|

-------------------|-------------------|

 

 

E E E E E E E E

--------------------------|

--------------------------|

--5-----5--L--L--L--L--0--|

--------------------------|

 

 

E E E E E E E E

--------------------------|

--------------------------|

--5-----5--L--L--0--8--L--|

--------------------------|

 

 

E E E E E E E E

--------------------------|

--------------------------|

--5-----5--L--L--0--8--L--|

--------------------------|

 

 

E E E E E E E E

--------------------------|

--------------------------|

--5-----5--L--L--L--L--0--|

--------------------------|

 

 

E E E E E E E E

--------------------------|

--------------------------|

--5-----5--L--L--0--5--0--|

--------------------------|

 

 

E E E E E E E E

--------------------------|

--------------------------|

--3-----3--L--L--0--3--L--|

--------------------------|

 

 

E E E E E E E E

--------------------------|

--------------------------|

--0-----------------------|

-----3--3--L--3--3--L--3--|

 

 

E E E E E E E E

--------------------------|

--------------------------|

--------------3--5--3-----|

--L--3--3--5-----------3--|

 

 

Q H. W

--------------------|-------------------|

--------------------|-------------------|

--5----5------------|--L----------------|

--------------------|-------------------|

 

 

W W

-------------------|-------------------|

-------------------|-------------------|

--L----------------|--L----------------|

-------------------|-------------------|

 

 

E E E E E E E E

--------------------------|

--------------------------|

--5-----5--L--L--L--L--0--|

--------------------------|

 

 

E E E E E E E E

--------------------------|

--------------------------|

--5-----5--L--L--0--8--L--|

--------------------------|

 

 

E E E E E E E E

--------------------------|

--------------------------|

--5-----5--L--L--0--8--L--|

--------------------------|

 

 

E E E E E E E E

--------------------------|

--------------------------|

--5-----5--L--L--L--L--0--|

--------------------------|

 

 

E E E E E E E E

--------------------------|

--------------------------|

--5-----5--L--L--0--5--0--|

--------------------------|

 

 

E E E E E E E E

--------------------------|

--------------------------|

--3-----3--L--L--0--3--L--|

--------------------------|

 

 

E E E E E E E E

--------------------------|

--------------------------|

--0-----------------------|

-----3--3--L--3--3--L--3--|

 

 

E E E E E E E E

--------------------------|

--------------------------|

--------------3--5--3-----|

--L--3--3--5-----------3--|

 

 

Q H.

--------------------|

--------------------|

--5----5------------|

--------------------|

 

 

E E E E E E E E

--------------------------|

--------------------------|

--L-----------3--5--3-----|

-----3--3--5-----------3--|

 

 

Q H.

--------------------|

--------------------|

--5----5------------|

--------------------|

 

 

E E E E E E E E

--------------------------|

--------------------------|

--L-----------3--5--3-----|

-----3--3--5-----------3--|

 

 

E E E E E E E E

--------------------------|

--------------------------|

--5--L--5--L--5--5--5--L--|

--------------------------|

 

 

E E E E E E E E

--------------------------|

--------------------------|

--------------------------|

-----5--5--L--5--5--5--5--|

 

 

E E E E E E E E

--------------------------|

--------------------------|

--3--L--3--L--3--3--3--3--|

--------------------------|

 

 

E E E E E E E E

--------------------------|

--------------5--L--------|

--L-----------------------|

-----3--3--3--------3--L--|

 

 

E E E E E E E E

--------------------------|

--------------------------|

--5--L--5--L--5--5--5--L--|

--------------------------|

 

 

E E E E E E E E

--------------------------|

--------------------------|

--------------------------|

-----5--5--L--5--5--5--5--|

 

 

E E E E E E E E

--------------------------|

--------------------------|

--3--L--3--L--3--3--3--3--|

--------------------------|

 

 

E E E E E E E E

--------------------------|

--------------------------|

--3-----------3--5--3-----|

-----3--3--5-----------5--|

 

 

E E E E E E E E

--------------------------|

--------------------------|

--5--L--5--L--5--5--5--L--|

--------------------------|

 

 

E E E E E E E E

--------------------------|

--------------------------|

--------------------------|

-----5--5--L--5--5--5--5--|

 

 

E E E E E E E E

--------------------------|

--------------------------|

--3--L--3--L--3--3--3--3--|

--------------------------|

 

 

E E E E E E E E

--------------------------|

--------------5--L--------|

--L-----------------------|

-----3--3--3--------3--L--|

 

 

E E E E E E E E

--------------------------|

--------------------------|

--5--L--5--L--5--5--5--L--|

--------------------------|

 

 

E E E E E E E E

--------------------------|

--------------------------|

--------------------------|

-----5--5--L--5--5--5--5--|

 

 

E E E E E E E E

--------------------------|

--------------------------|

--3--L--3--L--3--3--3--3--|

--------------------------|

 

 

E E E E E E E E

--------------------------|

--------------------------|

--L-----------3--5--3-----|

-----3--3--5-----------3--|

 

 

E E E E E E E E

--------------------------|

--------------------------|

--5--5--5--5--5--5--5--5--|

--------------------------|

 

 

E E E E E E E E

--------------------------|

--------------------------|

--5--5--5--5--5--0--3--0--|

--------------------------|

 

 

E E E E E E E E

--------------------------|

--------------------------|

--5--5--5--5--5--5--5--5--|

--------------------------|

 

 

E E E E E E E E

--------------------------|

--------------------------|

--5--5--5--5--5--0--3--0--|

--------------------------|

 

 

E E E E E E E E

--------------------------|

--------------------------|

--5--5--5--5--5--5--5--5--|

--------------------------|

 

 

E E E E E E E E

--------------------------|

--------------------------|

--3--3--3--3--3--3--3--3--|

--------------------------|

 

 

E E E E E E E E

--------------------------|

--------------------------|

--3-----------------------|

-----3--3--3--3--3--3--3--|

 

 

E E E E E E E E

--------------------------|

--------------------------|

-----------------------5--|

--1--1--1--1--1--1--1-----|

 

 

|--3--|

E E E E E E E E E

-----------------------------|

--------------3--------------|

--L--5--5--5-----5--3--0-----|

--------------------------3--|

 

 

E E E E E E E E

--------------------------|

--------------------------|

-----------------------5--|

--1--1--1--1--1--1--1-----|

 

 

|--3--|

E E E E E E E E E

-----------------------------|

--------------3--------------|

--L--5--5--5-----5--3--0-----|

--------------------------3--|

 

 

E E E E E E E E

--------------------------|

--------------------------|

-----------------------3--|

--1--1--1--1--1--1--1-----|

 

 

E E E E E E E E

--------------------------|

--------------------------|

--L--3--3--3--3--3--3--3--|

--------------------------|

 

 

E E E E E E E E

--------------------------|

--------------------------|

--3--3--------------------|

--------3--3--3--3--3--3--|

 

 

E E E E E E E E

--------------------------|

--------------------------|

--------------3--5--3-----|

--L--3--3--5-----------3--|

 

 

E E E E E E E E

--------------------------|

--------------------------|

--5--L--5--L--5--5--5--L--|

--------------------------|

 

 

E E E E E E E E

--------------------------|

--------------------------|

--------------------------|

-----5--5--L--5--5--5--5--|

 

 

E E E E E E E E

--------------------------|

--------------------------|

--3--L--3--L--3--3--3--3--|

--------------------------|

 

 

E E E E E E E E

--------------------------|

--------------5--L--------|

--L-----------------------|

-----3--3--3--------3--L--|

 

 

E E E E E E E E

--------------------------|

--------------------------|

--5--L--5--L--5--5--5--L--|

--------------------------|

 

 

E E E E E E E E

--------------------------|

--------------------------|

--------------------------|

-----5--5--L--5--5--5--5--|

 

 

E E E E E E E E

--------------------------|

--------------------------|

--3--L--3--L--3--3--3--3--|

--------------------------|

 

 

E E E E E E E E

--------------------------|

--------------------------|

--3-----------3--5--3-----|

-----3--3--5-----------5--|

 

 

E E E E E E E E

--------------------------|

--------------------------|

--5--L--5--L--5--5--5--L--|

--------------------------|

 

 

E E E E E E E E

--------------------------|

--------------------------|

--------------------------|

-----5--5--L--5--5--5--5--|

 

 

E E E E E E E E

--------------------------|

--------------------------|

--3--L--3--L--3--3--3--3--|

--------------------------|

 

 

E E E E E E E E

--------------------------|

--------------5--L--------|

--L-----------------------|

-----3--3--3--------3--L--|

 

 

E E E E E E E E

--------------------------|

--------------------------|

--5--L--5--L--5--5--5--L--|

--------------------------|

 

 

E E E E E E E E

--------------------------|

--------------------------|

--------------------------|

-----5--5--L--5--5--5--5--|

 

 

E E E E E E E E

--------------------------|

--------------------------|

--3--L--3--L--3--3--3--3--|

--------------------------|

 

 

E E E E E E E E

--------------------------|

--------------------------|

--L-----------3--5--3-----|

-----3--3--5-----------3--|

 

 

E E E E E E E E

--------------------------|

--------------------------|

--5--L--5--L--5--5--5--L--|

--------------------------|

 

 

E E E E E E E E

--------------------------|

--------------------------|

--------------------------|

-----5--5--L--5--5--5--5--|

 

 

E E E E E E E E

--------------------------|

--------------------------|

--3--L--3--L--3--3--3--3--|

--------------------------|

 

 

E E E E E E E E

--------------------------|

--------------5--L--------|

--L-----------------------|

-----3--3--3--------3--L--|

 

 

E E E E E E E E

--------------------------|

--------------------------|

--5--L--5--L--5--5--5--L--|

--------------------------|

 

 

E E E E E E E E

--------------------------|

--------------------------|

--------------------------|

-----5--5--L--5--5--5--5--|

 

 

E E E E E E E E

--------------------------|

--------------------------|

--3--L--3--L--3--3--3--3--|

--------------------------|

 

 

E E E E E E E E

--------------------------|

--------------5--L--------|

--L-----------------------|

-----3--3--3--------3--L--|

 

 

E E E E E E E E

--------------------------|

--------------------------|

--5--L--5--L--5--5--5--L--|

--------------------------|

 

 

E E E E E E E E

--------------------------|

--------------------------|

--------------------------|

-----5--5--L--5--5--5--5--|

 

 

E E E E E E E E

--------------------------|

--------------------------|

--3--L--3--L--3--3--3--3--|

--------------------------|

 

 

E E E E E E E E

--------------------------|

--------------5--L--------|

--L-----------------------|

-----3--3--3--------3--L--|

 

 

E E E E E E E E

--------------------------|

--------------------------|

--5--L--5--L--5--5--5--L--|

--------------------------|

 

 

E E E E E E E E

--------------------------|

--------------------------|

--------------------------|

-----5--5--L--5--5--5--5--|

 

 

E E E E E E E E

--------------------------|

--------------------------|

--3--L--3--L--3--3--3--3--|

--------------------------|

 

 

E E E E E E E E

--------------------------|

--------------5--L--------|

--L-----------------------|

-----3--3--3--------3--L--|

 

 

Q H. W

--------------------|-------------------|

--------------------|-------------------|

-------5------------|--L----------------|

--------------------|-------------------|

 

 

W W

-------------------|-------------------|

-------------------|-------------------|

--L----------------|--L----------------|

-------------------|-------------------|

 

 

-------------------|-------------------||

-------------------|-------------------||

-------------------|-------------------||

-------------------|-------------------||

 

 

 

 

Duration Legend

---------------

W - whole

H - half

Q - quarter

E - 8th

S - 16th

T - 32nd

X - 64th

. - note dotted

|-n-| - n-tuplets

 

 

Tablature Legend

----------------

L - tied note

x - dead note

g - grace note

(n) - ghost note

> - accentuded note

NH - natural harmonic

AH - artificial harmonic

TH - tapped harmonic

SH - semi harmonic

PH - pitch harmonic

h - hammer on

p - pull off

b - bend

br - bendRelease

pb - preBend

pbr - preBendRelease

brb - bendReleaseBend

\n/ - tremolo bar dip

\n - tremolo bar dive

-/n - tremolo bar Release up

/n\ - tremolo bar inverted dip

/n - tremolo bar return

-\n - tremolo bar Release down

S - shift slide

s - legato slide

/ - slide into from below or out of upwards

\ - slide into from above or out of downwards

~ - vibrato

W - wide vibrato

tr - trill

TP - tremolo picking

T - tapping

S - slap

P - pop

< - fade in

^ - brush up

v - brush down

Click here to return to my Foo Fighters Bass Tabs page

The Tablature is Copyright its respective owners.

Sign Up For My Newsletter
Subscribe | Unsubscribe

Site Map | Disclaimer | Privacy Policy | Media Kit | Submissions/Corrections

Website © 2000-2014 mattsmusicpage.com. All rights reserved.

Legal & DMCA: Matt's Music Page has been providing lyrics and tabs in a legal way, paying royalties each year to a few organizations. Then, all lyrics and tabs were removed from the site. Now, there's a new owner to the site, which purchased it August 26, 2014, and he is in negotiation to obtain licensing from BMI at the moment. If you have a specific DMCA request -- please do not hesitate to contact me via the contact button on top. I will do my very best to keep this site fully legal.

Get our toolbar!