Your One-Stop Source For
Music Lyrics
Bass and Guitar Tabs
and More...
Music Lyrics Bass and Guitar Tabs

 

The Foo Fighters Guitar Tabs Are Below

Learn To Read Tab
Chords Handbook
Corrections & Additions
Get Official Tab
Foo Fighters tabs @ 911Tabs

Foo Fighters - Still

 

Album: In Your Honor

Instrument: Guitar

Tuning: eBGDAE

 

Tabbed By: Adam Madsen / Glenn Nielson

 

 

 

Verse

e||---------------|---------------------------||

B||---------------|---------------------------||

G||----0------0---|----0-----0------0-----0---||

D||---2------2----|---------------------------||

A||--3--3---1--1--|---6-----8------6-----8----||

E||---------------|--4--4--6--6---4--4--6--6--||

 

 

Pre-Chorus

e||-----------------------------|---------------------------|--------------------------||

B||-----------------------------|---------------------------|--------------------------||

G||----0------0------0------0---|----0-----0------0-----0---|----0-----0-----0-----0---||

D||---2------2------2------2----|---------------------------|--------------------------||

A||--3--3---1--1----------1--1--|---6-----8------6-----8----|---3-----3-----3-----3----||

E||----------------3--3---------|--4--4--6--6---4--4--6--6--|--1--1--1--1--1--1--1--1--||

 

 

Chorus

e||----------------------------------------------------||

B||----------------------------------------------------||

G||----0-----0------0-----0------0-----0-----0-----0---||

D||----------------------------------------------------||

A||---6-----6------8-----8------3-----3-----3-----3----||

E||--4--4--4--4---6--6--6--6---1--1--1--1--1--1--1--1--||

 

 

End of chorus

e||---------------10-----------||

B||---------8---------------8--||

G||---------0---------0--------||

D||-----10---------------------||

A||--0---------0---------0-----||

E||----------------------------||

 

 

Verse after first chorus (Played like this for the rest of the song)

e||-----------------------------||

B||-----------------------------||

G||----0------0------0------0---||

D||---2------2------2------2----||

A||--3--3---1--1----------1--1--||

E||----------------3--3---------||

 

 

 

* Lyrics *

 

If you'd like to walk a while

We could waste the day

Follow me into the trees

I will lead the way

 

Bring some change up to the bridge

Bring some alcohol

There we'll make a final wish

Just before the fall

 

Promise I will be forever yours

Promise not to say another word

Nevermind, what's done is done

Always was a lucky one

 

Watch the sunrise all alone

Sitting on the tracks

Hear the train come roaring in

Never coming back

 

Laying quiet in the grass

Everything is still

River stones and broken bones

Scattered on the hill

 

Promise I will be forever yours

Promise not to say another word

Nevermind what's done is done

Always was a lucky one

 

Promise I will be forever yours

Promise not to say another word

Here forever deep beneath the dirt

Nevermind, what's done is done

Always was a lucky one

Click here to return to my Foo Fighters Guitar Tabs page

The Tablature is Copyright its respective owners.

Sign Up For My Newsletter
Subscribe | Unsubscribe

Site Map | Disclaimer | Privacy Policy | Media Kit | Submissions/Corrections

Website © 2000-2014 mattsmusicpage.com. All rights reserved.

Legal & DMCA: Matt's Music Page has been providing lyrics and tabs in a legal way, paying royalties each year to a few organizations. Then, all lyrics and tabs were removed from the site. Now, there's a new owner to the site, which purchased it August 26, 2014, and he is in negotiation to obtain licensing from BMI at the moment. If you have a specific DMCA request -- please do not hesitate to contact me via the contact button on top. I will do my very best to keep this site fully legal.

Get our toolbar!

 

Starbucks You Are Here Coffee Mug/Cup KENTUCKY - Horses, Banjo, Blue, White
$19.99
Starbucks You Are Here Coffee Mug/Cup KENTUCKY - Horses, Banjo, Blue, White picture


KNOWLES ROCKWELL HERITAGE "THE BANJO PLAYER" FIRST EDITION 1989 PLATE COA
$5.99
KNOWLES ROCKWELL HERITAGE


Vintage Postcard 1981 Disney World Banjo Kings Main Street USA 1981 Postmark
$4.99
 Vintage Postcard 1981 Disney World Banjo Kings Main Street USA 1981 Postmark picture


Banjo Barometer With Thermometer Hygrometer 490mm
$84.76
Banjo Barometer With Thermometer Hygrometer 490mm picture


ANTIQUE JAPANESE NIPPON FIGURINE SET OF 3 WOMEN GEISHA PLAYING DRUM BANJO FAN
$24.0
ANTIQUE JAPANESE NIPPON FIGURINE SET OF 3 WOMEN GEISHA PLAYING DRUM BANJO FAN picture