Your One-Stop Source For
Music Lyrics
Bass and Guitar Tabs
and More...
Music Lyrics Bass and Guitar Tabs

 

The Foo Fighters Bass Tabs Are Below

Learn To Read Tab
Chords Handbook
Corrections & Additions
Get Official Tab
Foo Fighters tabs @ 911Tabs

Foo Fighters Statues

 

 

Foo Fighters

Nate Mendel - Bass

 

INTRO

 

Q. Q. Q

G||------------------------|

D||------------------------|

A||----------12------------|

E||--10--------------10----|

 

 

Q. Q. E S S

--------------------------|

-----------------12--9----|

---------10------------12-|

--8-----------------------|

 

 

Q E Q E E E

------------12--------12--14--|

--------12--------12----------|

--10--------------------------|

------------------------------|

 

 

Q E E E E S S E

--15--------------------------|

------------15--LS--8--8-7----|

--------13-----------------8--|

------------------------------|

 

 

Q. Q. Q

------------------------|

------------------------|

----------12------------|

--10--------------10----|

 

VERSE

Q. E H W

---------12--12--------|--------------------|

-----------------------|--------------------|

-----------------------|--10----------------|

--8--------------------|--------------------|

 

 

W W

-------------------|-------------------|

-------------------|-------------------|

--L----------------|--L----------------|

-------------------|-------------------|

 

 

-------|-------|-------|-------|-------|

-------|-------|-------|-------|-------|

-------|-------|-------|-------|-------|

-------|-------|-------|-------|-------|

 

CHORUS

W

-------|-------|-------------------|

-------|-------|-------------------|

-------|-------|--5----------------|

-------|-------|-------------------|

 

 

Q. E H W

---------------------|-------------------|

---------------------|--5----------------|

--3------3--3--------|-------------------|

---------------------|-------------------|

 

 

W W

-------------------|-------------------|

--5----------------|-------------------|

-------------------|--5----------------|

-------------------|-------------------|

 

PRE - VERSE

Q. E H W

---------------------|-------------------|

---------------------|--5----------------|

--3------3--3--------|-------------------|

---------------------|-------------------|

 

VERSE

W Q. Q. Q

-------------------|---------------------|

--5----------------|---------------------|

-------------------|---------5-----------|

-------------------|--3-------------3----|

 

 

Q. Q. Q

---------------------|

---------------------|

---------3------L----|

--1------------------|

 

 

Q. Q E E E

-----------------------|

--------------2--------|

---------2-------2--0--|

--0--------------------|

 

 

Q. H E Q. Q. E E

---------3--------L--|----------------------|

--1------------------|----------------------|

---------------------|---------5------------|

---------------------|--3-------------3--3--|

 

Q. Q. E E

----------------------|

---------3------3--0--|

----------------------|

--1-------------------|

 

 

Q E E E E S S E

----------------------------|

--2----------4s--2--0s-2----|

----------2--------------2--|

-------0--------------------|

 

 

Q E H E

----------3--------L--|

--1----1--------------|

----------------------|

----------------------|

 

 

Q. Q. Q

------------------------|

------------------------|

----------12------------|

--10--------------10----|

 

 

Q. E H

-----------------------|

-----------------------|

---------10--10--------|

--8--------------------|

 

 

Q. Q. Q

------------------------|

------------------------|

--10--------------10----|

----------10------------|

 

 

Q. Q. Q

------------------------|

------------------------|

--10--------------10----|

----------10------------|

 

 

Q. Q. Q

------------------------|

------------------------|

----------12------------|

--10--------------10----|

 

 

Q. E H

-----------------------|

-----------------------|

---------10--10--------|

--8--------------------|

 

 

Q. Q. Q

------------------------|

------------------------|

--10--------------10----|

----------10------------|

 

 

Q. E H

---------------------|

---------------------|

---------8--8--------|

--6------------------|

 

 

Q. Q. Q

------------------------|

------------------------|

----------12------------|

--10--------------10----|

 

 

Q. E Q E E

--------------------------|

--------------------------|

---------10--10-----------|

--8----------------8--10--|

 

 

Q. Q. Q

------------------------|

------------------------|

--10--------------10----|

----------10------------|

 

 

Q. Q. Q

------------------------|

----------12------------|

--10--------------10----|

------------------------|

 

 

Q. Q. Q

------------------------|

------------------------|

----------12------------|

--10--------------10----|

 

 

Q. E H

-----------------------|

-----------------------|

---------10--10--------|

--8--------------------|

 

 

Q. E Q Q

-------------------------|

-------------------------|

--10------5--Ls----10----|

-------------------------|

 

 

Q. E E E E E

------------------------------|

--------------12------12------|

--10------10------10------10--|

------------------------------|

 

BRIDGE

 

Q. Q. E E

----------------------|

----------------------|

---------7------------|

--5-------------5--7--|

 

 

Q. Q. Q

-----------------------|

-----------------------|

---------10------L\----|

--8--------------------|

 

 

Q. Q. Q Q. Q. Q

---------------------|---------------------|

---------------------|---------7------L----|

---------5-----------|--5------------------|

--3-------------3----|---------------------|

 

 

Q. Q. E E

----------------------|

----------------------|

---------7------------|

--5-------------5--7--|

 

 

Q. Q. Q

-----------------------|

-----------------------|

---------10------L\----|

--8--------------------|

 

 

Q. Q. Q Q. Q. Q

---------------------|---------------------|

---------------------|---------7------L----|

---------5-----------|--5------------------|

--3-------------3----|---------------------|

 

 

Q. Q. E E

----------------------|

----------------------|

---------7------------|

--5-------------5--7--|

 

 

Q. Q. Q

-----------------------|

-----------------------|

---------10------L\----|

--8--------------------|

 

 

Q. Q. Q

---------------------|

---------------------|

---------5-----------|

--3-------------3----|

 

 

Q. E E E Q

------------7-----7\----|

---------7-----7--------|

--5---------------------|

------------------------|

 

 

Q. Q. E E

----------------------|

----------------------|

---------7------------|

--5-------------5--7--|

 

 

Q. Q. Q

-----------------------|

-----------------------|

---------10------L\----|

--8--------------------|

 

 

Q. Q. Q Q. Q. Q

---------------------|---------------------|

---------------------|---------7------L----|

---------5-----------|--5------------------|

--3-------------3----|---------------------|

 

CHORUS

 

Q. Q. Q

------------------------|

------------------------|

----------12------------|

--10--------------10----|

 

 

Q. E H

-----------------------|

-----------------------|

---------10--10--------|

--8--------------------|

 

 

Q. Q. Q

------------------------|

------------------------|

--10--------------10----|

----------10------------|

 

 

Q. E H

---------------------|

---------------------|

---------8--8--------|

--6------------------|

 

 

Q. Q. Q

------------------------|

------------------------|

----------12------------|

--10--------------10----|

 

 

Q. E H

-----------------------|

-----------------------|

---------10--10--------|

--8--------------------|

 

 

Q. Q. Q

------------------------|

------------------------|

--10--------------10----|

----------10------------|

 

 

Q. Q. Q

------------------------|

------------------------|

--10--------------10----|

----------10------------|

 

 

Q. Q. Q

------------------------|

------------------------|

----------12------------|

--10--------------10----|

 

 

Q. E Q E E

--------------------------|

--------------------------|

---------10--10-----------|

--8----------------8--10--|

 

 

Q. Q. Q

------------------------|

------------------------|

--10--------------10----|

----------10------------|

 

 

Q. E H

---------------------|

---------------------|

---------8--8--------|

--6------------------|

 

 

Q. Q. Q

------------------------|

------------------------|

----------12------------|

--10--------------10----|

 

 

Q. E H

-----------------------|

-----------------------|

---------10--10--------|

--8--------------------|

 

 

Q. E Q Q

-------------------------|

-------------------------|

--10------5--Ls----10----|

-------------------------|

 

 

Q. E H

---------------------|

---------------------|

---------8--8--------|

--6------------------|

 

 

Q. Q. Q

------------------------|

------------------------|

----------12------------|

--10--------------10----|

 

 

Q. E H W

-----------------------|-------------------|

-----------------------|-------------------|

---------10--10--------|-------------------|

--8--------------------|--3----------------|

 

 

-------||

-------||

-------||

-------||

 

 

 

 

Duration Legend

---------------

W - whole

H - half

Q - quarter

E - 8th

S - 16th

T - 32nd

X - 64th

. - note dotted

|-n-| - n-tuplets

 

 

Tablature Legend

----------------

L - tied note

x - dead note

g - grace note

(n) - ghost note

> - accentuded note

NH - natural harmonic

AH - artificial harmonic

TH - tapped harmonic

SH - semi harmonic

PH - pitch harmonic

h - hammer on

p - pull off

b - bend

br - bendRelease

pb - preBend

pbr - preBendRelease

brb - bendReleaseBend

\n/ - tremolo bar dip

\n - tremolo bar dive

-/n - tremolo bar Release up

/n\ - tremolo bar inverted dip

/n - tremolo bar return

-\n - tremolo bar Release down

S - shift slide

s - legato slide

/ - slide into from below or out of upwards

\ - slide into from above or out of downwards

~ - vibrato

W - wide vibrato

tr - trill

TP - tremolo picking

T - tapping

S - slap

P - pop

< - fade in

^ - brush up

v - brush down

Click here to return to my Foo Fighters Bass Tabs page

The Tablature is Copyright its respective owners.

Sign Up For My Newsletter
Subscribe | Unsubscribe

Site Map | Disclaimer | Privacy Policy | Media Kit | Submissions/Corrections

Website © 2000-2014 mattsmusicpage.com. All rights reserved.

Legal & DMCA: Matt's Music Page has been providing lyrics and tabs in a legal way, paying royalties each year to a few organizations. Then, all lyrics and tabs were removed from the site. Now, there's a new owner to the site, which purchased it August 26, 2014, and he is in negotiation to obtain licensing from BMI at the moment. If you have a specific DMCA request -- please do not hesitate to contact me via the contact button on top. I will do my very best to keep this site fully legal.

Get our toolbar!

 

VINTAGE SORRENTO MUSIC JEWELRY BOX
$45.0
VINTAGE SORRENTO MUSIC JEWELRY BOX picture


VINTAGE LACQUERED MUSIC BOX JAPAN
$25.99
VINTAGE LACQUERED MUSIC BOX JAPAN picture


Vintage Kehlsteinhaus Bavaria Germany Colorscope Cow Bell View Master Music Box
$8.99
Vintage Kehlsteinhaus Bavaria Germany Colorscope Cow Bell View Master Music Box picture


VINTAGE SCHMIDT Signed Collectible Musical Turning Clown
$9.99
VINTAGE  SCHMIDT Signed Collectible Musical Turning Clown picture


Vintage - Linen - Postcard - Stage - Radio City Music Hall - New York City
$3.75
Vintage - Linen - Postcard - Stage - Radio City Music Hall - New York City   picture