Your One-Stop Source For
Music Lyrics
Bass and Guitar Tabs
and More...
>Music Lyrics Bass and Guitar Tabs

 

The Foo Fighters Bass Tabs Are Below

Learn To Read Tab
Chords Handbook
Corrections & Additions
Get Official Tab
Foo Fighters tabs @ 911Tabs

Foo Fighters - Resolve

 

Album: 2005 - In Your Honor

Instrument: Bass

Tuning: GDAE

 

Tabbed By: Gabe D

 

 

Intro/Chorus/Bridge

e|-------------|

B|-------------|

G|-------------|

D|-2-3-2-3-2-3-|

 

e|------------------------------|

B|------------------------------|

G|------------------------------|

D|-5--5--5--5--5--5--5--5--5--5-|

 

e|------------------------------|

B|------------------------------|

G|------------------------------|

D|-0--0--0--0--0--0--0--0--0--0-|

 

e|------------------------------|

B|------------------------------|

G|------------------------------|

D|-9--9--9--9--9--9--9--9--9--9-|

 

e|------------------------------|

B|------------------------------|

G|------------------------------|

D|-3--3--3--3--3--3--3--3--3--3-|

 

e|-------------|

B|-------------|

G|-------------|

D|-2-3-2-3-2-3-|

 

 

Verse

e|------------------------------|

B|------------------------------|

G|------------------------------|

D|-5--5--5--5--5--5--5--5--5--5-|

 

e|------------------------------|

B|------------------------------|

G|------------------------------|

D|-0--0--0--0--0--0--0--0--0--0-|

 

e|------------------------------|

B|------------------------------|

G|------------------------------|

D|-3--3--3--3--3--3--3--3--3--3-|

 

e|------------------------------|

B|------------------------------|

G|------------------------------|

D|-9--9--9--9--9--9--9--9--9--9-|

 

 

Click here to return to my Foo Fighters Bass Tabs page

The Tablature is Copyright its respective owners.

Sign Up For My Newsletter
Subscribe | Unsubscribe

Site Map | Disclaimer | Privacy Policy | Media Kit | Submissions/Corrections

Website © 2000-2014 mattsmusicpage.com. All rights reserved.

Legal & DMCA: Matt's Music Page has been providing lyrics and tabs in a legal way, paying royalties each year to a few organizations. Then, all lyrics and tabs were removed from the site. Now, there's a new owner to the site, which purchased it August 26, 2014, and he is in negotiation to obtain licensing from BMI at the moment. If you have a specific DMCA request -- please do not hesitate to contact me via the contact button on top. I will do my very best to keep this site fully legal.

Get our toolbar!

 

Vintage Wood Music Box Grand Piano By Coaster Co. of America Trinket
$14.99
Vintage Wood Music Box Grand Piano By Coaster Co. of America Trinket picture


Vintage Wood Music Box Japan Calendar Girl 1889
$14.99
Vintage Wood Music Box Japan Calendar Girl 1889 picture


Vintage 1977 music box
$9.99
Vintage 1977 music box picture


Vintage ANRI wooden rotating spinning music box rare WORKS
$39.99
Vintage ANRI wooden rotating spinning music box rare WORKS picture


Rare Vintage Woodstock Ceramic Music Box by Schmidt Peanuts
$44.99
Rare Vintage Woodstock Ceramic Music Box by Schmidt Peanuts picture